  0
SECTION
  2
HEADER
  9
$ACADVER
  1
AC1014
  9
$ACADMAINTVER
 70
     0
  9
$DWGCODEPAGE
  3
ANSI_932
  9
$INSBASE
 10
0.000000
 20
0.000000
 30
0.000000
  9
$EXTMIN
 10
0.000000
 20
0.000000
 30
0.000000
  9
$EXTMAX
 10
190.000000
 20
257.000000
 30
0.000000
  9
$LIMMIN
 10
0.000000
 20
0.000000
  9
$LIMMAX
 10
190.000000
 20
257.000000
  9
$ORTHOMODE
 70
     0
  9
$REGENMODE
 70
     1
  9
$FILLMODE
 70
     1
  9
$QTEXTMODE
 70
     0
  9
$MIRRTEXT
 70
     1
  9
$DRAGMODE
 70
     2
  9
$LTSCALE
 40
1.000000
  9
$OSMODE
 70
     0
  9
$ATTMODE
 70
     1
  9
$TEXTSIZE
 40
2.500000
  9
$TRACEWID
 40
1.000000
  9
$TEXTSTYLE
  7
BIGFONT
  9
$CLAYER
  8
0
  9
$CELTYPE
  6
BYLAYER
  9
$CECOLOR
 62
   256
  9
$CELTSCALE
 40
1.000000
  9
$DELOBJ
 70
     1
  9
$DISPSILH
 70
     0
  9
$DIMSCALE
 40
1.000000
  9
$DIMASZ
 40
2.500000
  9
$DIMEXO
 40
0.625000
  9
$DIMDLI
 40
3.750000
  9
$DIMRND
 40
0.000000
  9
$DIMDLE
 40
0.000000
  9
$DIMEXE
 40
1.250000
  9
$DIMTP
 40
0.000000
  9
$DIMTM
 40
0.000000
  9
$DIMTXT
 40
2.500000
  9
$DIMCEN
 40
2.500000
  9
$DIMTSZ
 40
0.000000
  9
$DIMTOL
 70
     0
  9
$DIMLIM
 70
     0
  9
$DIMTIH
 70
     0
  9
$DIMTOH
 70
     0
  9
$DIMSE1
 70
     0
  9
$DIMSE2
 70
     0
  9
$DIMTAD
 70
     1
  9
$DIMZIN
 70
     8
  9
$DIMBLK
  1

  9
$DIMASO
 70
     1
  9
$DIMSHO
 70
     1
  9
$DIMPOST
  1

  9
$DIMAPOST
  1

  9
$DIMALT
 70
     0
  9
$DIMALTD
 70
     4
  9
$DIMALTF
 40
0.039400
  9
$DIMLFAC
 40
1.000000
  9
$DIMTOFL
 70
     1
  9
$DIMTVP
 40
0.000000
  9
$DIMTIX
 70
     0
  9
$DIMSOXD
 70
     0
  9
$DIMSAH
 70
     0
  9
$DIMBLK1
  1

  9
$DIMBLK2
  1

  9
$DIMSTYLE
  2
STANDARD
  9
$DIMCLRD
 70
     0
  9
$DIMCLRE
 70
     0
  9
$DIMCLRT
 70
     0
  9
$DIMTFAC
 40
1.000000
  9
$DIMGAP
 40
0.625000
  9
$DIMJUST
 70
     0
  9
$DIMSD1
 70
     0
  9
$DIMSD2
 70
     0
  9
$DIMTOLJ
 70
     1
  9
$DIMTZIN
 70
     0
  9
$DIMALTZ
 70
     0
  9
$DIMALTTZ
 70
     0
  9
$DIMFIT
 70
     3
  9
$DIMUPT
 70
     0
  9
$DIMUNIT
 70
     8
  9
$DIMDEC
 70
     4
  9
$DIMTDEC
 70
     4
  9
$DIMALTU
 70
     8
  9
$DIMALTTD
 70
     4
  9
$DIMTXSTY
  7
STANDARD
  9
$DIMAUNIT
 70
     0
  9
$LUNITS
 70
     2
  9
$LUPREC
 70
     4
  9
$AXISMODE
 70
     0
  9
$SKETCHINC
 40
1.000000
  9
$FILLETRAD
 40
10.000000
  9
$AUNITS
 70
     0
  9
$AUPREC
 70
     0
  9
$MENU
  1
acad
  9
$ELEVATION
 40
0.000000
  9
$PELEVATION
 40
0.000000
  9
$THICKNESS
 40
0.000000
  9
$LIMCHECK
 70
     0
  9
$BLIPMODE
 70
     0
  9
$CHAMFERA
 40
10.000000
  9
$CHAMFERB
 40
10.000000
  9
$CHAMFERC
 40
20.000000
  9
$CHAMFERD
 40
0.000000
  9
$SKPOLY
 70
     0
  9
$TDCREATE
 40
2447851.677998
  9
$TDUPDATE
 40
2447851.677998
  9
$TDINDWG
 40
0.000000
  9
$TDUSRTIMER
 40
0.000000
  9
$USRTIMER
 70
     1
  9
$ANGBASE
 50
0.000000
  9
$ANGDIR
 70
     0
  9
$PDMODE
 70
     0
  9
$PDSIZE
 40
0.000000
  9
$PLINEWID
 40
0.000000
  9
$COORDS
 70
     1
  9
$SPLFRAME
 70
     0
  9
$SPLINETYPE
 70
     6
  9
$SPLINESEGS
 70
     8
  9
$ATTDIA
 70
     0
  9
$ATTREQ
 70
     1
  9
$HANDLING
 70
     1
  9
$HANDSEED
  5
FFFFFFF
  9
$SURFTAB1
 70
     6
  9
$SURFTAB2
 70
     6
  9
$SURFTYPE
 70
     6
  9
$SURFU
 70
     6
  9
$SURFV
 70
     6
  9
$UCSNAME
  2

  9
$UCSORG
 10
0.000000
 20
0.000000
 30
0.000000
  9
$UCSXDIR
 10
1.000000
 20
0.000000
 30
0.000000
  9
$UCSYDIR
 10
0.000000
 20
1.000000
 30
0.000000
  9
$PUCSNAME
  2

  9
$PUCSORG
 10
0.000000
 20
0.000000
 30
0.000000
  9
$PUCSXDIR
 10
1.000000
 20
0.000000
 30
0.000000
  9
$PUCSYDIR
 10
0.000000
 20
1.000000
 30
0.000000
  9
$USERI1
 70
     0
  9
$USERI2
 70
     0
  9
$USERI3
 70
     0
  9
$USERI4
 70
     0
  9
$USERI5
 70
     0
  9
$USERR1
 40
0.000000
  9
$USERR2
 40
0.000000
  9
$USERR3
 40
0.000000
  9
$USERR4
 40
0.000000
  9
$USERR5
 40
0.000000
  9
$WORLDVIEW
 70
     1
  9
$SHADEDGE
 70
     3
  9
$SHADEDIF
 70
    70
  9
$TILEMODE
 70
     1
  9
$MAXACTVP
 70
    48
  9
$PINSBASE
 10
0.000000
 20
0.000000
 30
0.000000
  9
$PLIMCHECK
 70
     0
  9
$PEXTMIN
 10
100000000000000000000.000000
 20
100000000000000000000.000000
 30
100000000000000000000.000000
  9
$PEXTMAX
 10
-100000000000000000000.000000
 20
-100000000000000000000.000000
 30
-100000000000000000000.000000
  9
$PLIMMIN
 10
0.000000
 20
0.000000
  9
$PLIMMAX
 10
190.000000
 20
257.000000
  9
$UNITMODE
 70
     0
  9
$VISRETAIN
 70
     1
  9
$PLINEGEN
 70
     0
  9
$PSLTSCALE
 70
     1
  9
$TREEDEPTH
 70
  3020
  9
$PICKSTYLE
 70
     1
  9
$CMLSTYLE
  2
STANDARD
  9
$CMLJUST
 70
     0
  9
$CMLSCALE
 40
20.000000
  9
$PROXYGRAPHICS
 70
     1
  9
$MEASUREMENT
 70
     1
  0
ENDSEC
  0
SECTION
  2
TABLES
  0
TABLE
  2
VPORT
  5
a2
100
AcDbSymbolTable
 70
     2
  0
VPORT
  5
a5
100
AcDbSymbolTableRecord
100
AcDbViewportTableRecord
  2
*ACTIVE
 70
     0
 10
0.000000
 20
0.000000
 11
1.000000
 21
1.000000
 12
300.000000
 22
200.000000
 13
0.000000
 23
0.000000
 14
10.000000
 24
10.000000
 15
10.000000
 25
10.000000
 16
0.000000
 26
0.000000
 36
1.000000
 17
0.000000
 27
0.000000
 37
0.000000
 40
300.000000
 41
1.600432
 42
50.000000
 43
0.000000
 44
0.000000
 50
0.000000
 51
0.000000
 71
     0
 72
   100
 73
     1
 74
     1
 75
     0
 76
     0
 77
     0
 78
     0
  0
ENDTAB
  0
TABLE
  2
LTYPE
  5
a8
100
AcDbSymbolTable
 70
    11
  0
LTYPE
  5
ab
100
AcDbSymbolTableRecord
100
AcDbLinetypeTableRecord
  2
BYBLOCK
 70
    64
  3
BYBLOCK
 72
    65
 73
     0
 40
0.000000
  0
LTYPE
  5
ae
100
AcDbSymbolTableRecord
100
AcDbLinetypeTableRecord
  2
BYLAYER
 70
    64
  3
BYLAYER
 72
    65
 73
     0
 40
0.000000
  0
LTYPE
  5
b1
100
AcDbSymbolTableRecord
100
AcDbLinetypeTableRecord
  2
CONTINUOUS
 70
    64
  3
実線
 72
    65
 73
     0
 40
0.000000
  0
LTYPE
  5
b4
100
AcDbSymbolTableRecord
100
AcDbLinetypeTableRecord
  2
DASHED
 70
    64
  3
__ __ __ __ __ __ __ __ __ __ __ __ __ __ __
 72
    65
 73
     2
 40
0.750000
 49
0.500000
 74
     0
 49
-0.250000
 74
     0
  0
LTYPE
  5
b7
100
AcDbSymbolTableRecord
100
AcDbLinetypeTableRecord
  2
HIDDEN
 70
    64
  3
_ _ _ _ _ _ _ _ _ _ _ _ _ _ _ _ _ _ _ _ _ _ _
 72
    65
 73
     2
 40
0.375000
 49
0.250000
 74
     0
 49
-0.125000
 74
     0
  0
LTYPE
  5
ba
100
AcDbSymbolTableRecord
100
AcDbLinetypeTableRecord
  2
CENTER
 70
    64
  3
____ _ ____ _ ____ _ ____ _ ____ _ ____ _ ____
 72
    65
 73
     4
 40
2.000000
 49
1.250000
 74
     0
 49
-0.250000
 74
     0
 49
0.250000
 74
     0
 49
-0.250000
 74
     0
  0
LTYPE
  5
bd
100
AcDbSymbolTableRecord
100
AcDbLinetypeTableRecord
  2
PHANTOM
 70
    64
  3
_____ _ _ _____ _ _ _____ _ _ _____ _ _ ____
 72
    65
 73
     6
 40
2.500000
 49
1.250000
 74
     0
 49
-0.250000
 74
     0
 49
0.250000
 74
     0
 49
-0.250000
 74
     0
 49
0.250000
 74
     0
 49
-0.250000
 74
     0
  0
LTYPE
  5
c0
100
AcDbSymbolTableRecord
100
AcDbLinetypeTableRecord
  2
DOT
 70
    64
  3
...............................................
 72
    65
 73
     2
 40
0.250000
 49
0.000000
 74
     0
 49
-0.250000
 74
     0
  0
LTYPE
  5
c3
100
AcDbSymbolTableRecord
100
AcDbLinetypeTableRecord
  2
DASHDOT
 70
    64
  3
__ . __ . __ . __ . __ . __ . __ . __ . __ . __
 72
    65
 73
     4
 40
1.000000
 49
0.500000
 74
     0
 49
-0.250000
 74
     0
 49
0.000000
 74
     0
 49
-0.250000
 74
     0
  0
LTYPE
  5
c6
100
AcDbSymbolTableRecord
100
AcDbLinetypeTableRecord
  2
BORDER
 70
    64
  3
__ __ . __ __ . __ __ . __ __ . __ __ . __ __
 72
    65
 73
     6
 40
1.750000
 49
0.500000
 74
     0
 49
-0.250000
 74
     0
 49
0.500000
 74
     0
 49
-0.250000
 74
     0
 49
0.000000
 74
     0
 49
-0.250000
 74
     0
  0
LTYPE
  5
c9
100
AcDbSymbolTableRecord
100
AcDbLinetypeTableRecord
  2
DIVIDE
 70
    64
  3
__ . . __ . . __ . . __ . . __ . . __ . . __
 72
    65
 73
     6
 40
1.250000
 49
0.500000
 74
     0
 49
-0.250000
 74
     0
 49
0.000000
 74
     0
 49
-0.250000
 74
     0
 49
0.000000
 74
     0
 49
-0.250000
 74
     0
  0
ENDTAB
  0
TABLE
  2
LAYER
  5
cc
100
AcDbSymbolTable
 70
     2
  0
LAYER
  5
cf
100
AcDbSymbolTableRecord
100
AcDbLayerTableRecord
  2
0
 70
    64
 62
     7
  6
CONTINUOUS
  0
ENDTAB
  0
TABLE
  2
STYLE
  5
d2
100
AcDbSymbolTable
 70
     2
  0
STYLE
  5
d5
100
AcDbSymbolTableRecord
100
AcDbTextStyleTableRecord
  2
STANDARD
 70
     0
 40
0.000000
 41
0.500000
 50
0.000000
 71
     0
 42
0.300000
  3
txt
  4

  0
STYLE
  5
d8
100
AcDbSymbolTableRecord
100
AcDbTextStyleTableRecord
  2
BIGFONT
 70
    64
 40
0.000000
 41
1.000000
 50
0.000000
 71
     0
 42
0.200000
  3

  4
bigfont
  0
ENDTAB
  0
TABLE
  2
VIEW
  5
db
100
AcDbSymbolTable
 70
     0
  0
ENDTAB
  0
TABLE
  2
UCS
  5
de
100
AcDbSymbolTable
 70
     0
  0
ENDTAB
  0
TABLE
  2
APPID
  5
e1
100
AcDbSymbolTable
 70
     3
  0
APPID
  5
e4
100
AcDbSymbolTableRecord
100
AcDbRegAppTableRecord
  2
ACAD
 70
     0
  0
APPID
  5
e7
100
AcDbSymbolTableRecord
100
AcDbRegAppTableRecord
  2
CONTENTTABDATA
 70
     0
  0
APPID
  5
ea
100
AcDbSymbolTableRecord
100
AcDbRegAppTableRecord
  2
CONTENTCURRENTTAB
 70
     0
  0
ENDTAB
  0
TABLE
  2
DIMSTYLE
  5
ed
100
AcDbSymbolTable
 70
     1
  0
DIMSTYLE
105
f0
100
AcDbSymbolTableRecord
100
AcDbDimStyleTableRecord
  2
STANDARD
 70
     0
  3

  4

  5

  6

  7

 40
1.000000
 41
0.180000
 42
0.062500
 43
0.380000
 44
0.180000
 45
0.000000
 46
0.000000
 47
0.000000
 48
0.000000
140
0.180000
141
0.090000
142
0.000000
143
25.400000
144
1.000000
145
0.000000
146
1.000000
147
0.090000
 71
     0
 72
     0
 73
     1
 74
     1
 75
     0
 76
     0
 77
     0
 78
     0
170
     0
171
     2
172
     0
173
     0
174
     0
175
     0
176
     0
177
     0
178
     0
270
     2
271
     4
272
     4
273
     2
274
     2
340
d5
275
     0
280
     0
281
     0
282
     0
283
     1
284
     0
285
     0
286
     0
287
     3
288
     0
  0
ENDTAB
  0
TABLE
  2
BLOCK_RECORD
  5
f3
100
AcDbSymbolTable
 70
     0
  0
BLOCK_RECORD
  5
f6
100
AcDbSymbolTableRecord
100
AcDbBlockTableRecord
  2
*MODEL_SPACE
  0
BLOCK_RECORD
  5
f9
100
AcDbSymbolTableRecord
100
AcDbBlockTableRecord
  2
*PAPER_SPACE
  0
ENDTAB
  0
ENDSEC
  0
SECTION
  2
BLOCKS
  0
BLOCK
  5
fc
100
AcDbEntity
  8
0
100
AcDbBlockBegin
  2
*MODEL_SPACE
 70
     0
 10
0.000000
 20
0.000000
 30
0.000000
  3
*MODEL_SPACE
  1
 
  0
ENDBLK
  5
ff
100
AcDbEntity
  8
0
100
AcDbBlockEnd
  0
BLOCK
  5
102
100
AcDbEntity
 67
     1
  8
0
100
AcDbBlockBegin
  2
*PAPER_SPACE
 70
     0
 10
0.000000
 20
0.000000
 30
0.000000
  3
*PAPER_SPACE
  1
 
  0
ENDBLK
  5
105
100
AcDbEntity
 67
     1
  8
0
100
AcDbBlockEnd
  0
ENDSEC
  0
SECTION
  2
ENTITIES
  0
LWPOLYLINE
  5
108
100
AcDbEntity
  8
0
100
AcDbPolyline
 90
     4
 70
     1
 43
0.400000
 10
5.225000
 20
247.850000
 10
75.025000
 20
247.850000
 10
75.025000
 20
178.050000
 10
5.225000
 20
178.050000
  0
LINE
  5
113
100
AcDbEntity
  8
0
100
AcDbLine
 10
5.225000
 20
183.050000
 11
75.025000
 21
183.050000
  0
LINE
  5
116
100
AcDbEntity
  8
0
100
AcDbLine
 10
5.225000
 20
242.850000
 11
75.025000
 21
242.850000
  0
LINE
  5
119
100
AcDbEntity
  8
0
100
AcDbLine
 10
10.225000
 20
247.850000
 11
10.225000
 21
178.050000
  0
LINE
  5
11c
100
AcDbEntity
  8
0
100
AcDbLine
 10
70.025000
 20
247.850000
 11
70.025000
 21
178.050000
  0
LINE
  5
11f
100
AcDbEntity
  8
0
100
AcDbLine
 10
5.225000
 20
226.325000
 11
5.225000
 21
199.000000
  0
CIRCLE
  5
122
100
AcDbEntity
  8
0
100
AcDbCircle
 10
10.225000
 20
183.050000
 40
1.600000
  0
CIRCLE
  5
125
100
AcDbEntity
  8
0
100
AcDbCircle
 10
70.025000
 20
183.050000
 40
1.600000
  0
CIRCLE
  5
128
100
AcDbEntity
  8
0
100
AcDbCircle
 10
70.025000
 20
242.850000
 40
1.600000
  0
CIRCLE
  5
12b
100
AcDbEntity
  8
0
100
AcDbCircle
 10
10.225000
 20
242.850000
 40
1.600000
  0
LWPOLYLINE
  5
12e
100
AcDbEntity
  8
0
100
AcDbPolyline
 90
     4
 70
     1
 43
0.400000
 10
26.025000
 20
212.850000
 10
54.225000
 20
212.850000
 10
54.225000
 20
208.750000
 10
26.025000
 20
208.750000
  0
LINE
  5
139
100
AcDbEntity
  8
0
100
AcDbLine
 10
14.475000
 20
183.050000
 11
14.475000
 21
178.050000
  0
LINE
  5
13c
100
AcDbEntity
  8
0
100
AcDbLine
 10
14.475000
 20
189.750000
 11
14.475000
 21
183.050000
  0
LINE
  5
13f
100
AcDbEntity
  8
0
100
AcDbLine
 10
14.475000
 20
174.050000
 11
14.475000
 21
178.050000
  0
LWPOLYLINE
  5
142
100
AcDbEntity
  8
0
100
AcDbPolyline
 90
     3
 70
     0
 10
14.200000
 20
184.025000
 10
14.475000
 20
183.050000
 10
14.725000
 20
184.025000
  0
LWPOLYLINE
  5
14b
100
AcDbEntity
  8
0
100
AcDbPolyline
 90
     3
 70
     0
 10
14.725000
 20
177.100000
 10
14.475000
 20
178.050000
 10
14.200000
 20
177.100000
  0
LINE
  5
154
100
AcDbEntity
  8
0
100
AcDbLine
 10
16.750000
 20
183.050000
 11
12.475000
 21
183.050000
  0
LINE
  5
157
100
AcDbEntity
  8
0
100
AcDbLine
 10
16.750000
 20
178.050000
 11
12.475000
 21
178.050000
  0
TEXT
  5
15a
100
AcDbEntity
  8
0
100
AcDbText
 10
14.000000
 20
185.625000
 40
2.475000
  1
5.0
 41
1.000000
 50
90.000000
  7
STANDARD
100
AcDbText
  0
LINE
  5
15d
100
AcDbEntity
  8
0
100
AcDbLine
 10
5.225000
 20
237.350000
 11
10.225000
 21
237.350000
  0
LINE
  5
160
100
AcDbEntity
  8
0
100
AcDbLine
 10
0.000000
 20
237.350000
 11
5.225000
 21
237.350000
  0
LINE
  5
163
100
AcDbEntity
  8
0
100
AcDbLine
 10
14.225000
 20
237.350000
 11
10.225000
 21
237.350000
  0
LWPOLYLINE
  5
166
100
AcDbEntity
  8
0
100
AcDbPolyline
 90
     3
 70
     0
 10
4.250000
 20
237.100000
 10
5.225000
 20
237.350000
 10
4.250000
 20
237.625000
  0
LWPOLYLINE
  5
16f
100
AcDbEntity
  8
0
100
AcDbPolyline
 90
     3
 70
     0
 10
11.175000
 20
237.625000
 10
10.225000
 20
237.350000
 10
11.175000
 20
237.100000
  0
LINE
  5
178
100
AcDbEntity
  8
0
100
AcDbLine
 10
10.225000
 20
235.100000
 11
10.225000
 21
239.350000
  0
LINE
  5
17b
100
AcDbEntity
  8
0
100
AcDbLine
 10
5.225000
 20
235.100000
 11
5.225000
 21
239.350000
  0
TEXT
  5
17e
100
AcDbEntity
  8
0
100
AcDbText
 10
-0.000000000000000
 20
237.850000
 40
2.475000
  1
5.0
 41
1.000000
  7
STANDARD
100
AcDbText
  0
LINE
  5
181
100
AcDbEntity
  8
0
100
AcDbLine
 10
8.975000
 20
241.875000
 11
11.475000
 21
243.825000
  0
LINE
  5
184
100
AcDbEntity
  8
0
100
AcDbLine
 10
24.350000
 20
253.800000
 11
11.475000
 21
243.825000
  0
LINE
  5
187
100
AcDbEntity
  8
0
100
AcDbLine
 10
5.800000
 20
239.425000
 11
8.975000
 21
241.875000
  0
LWPOLYLINE
  5
18a
100
AcDbEntity
  8
0
100
AcDbPolyline
 90
     3
 70
     0
 10
12.075000
 20
244.625000
 10
11.475000
 20
243.825000
 10
12.375000
 20
244.225000
  0
LWPOLYLINE
  5
193
100
AcDbEntity
  8
0
100
AcDbPolyline
 90
     3
 70
     0
 10
8.350000
 20
241.100000
 10
8.975000
 20
241.875000
 10
8.050000
 20
241.500000
  0
TEXT
  5
19c
100
AcDbEntity
  8
0
100
AcDbText
 10
15.698673
 20
248.460852
 40
2.475000
  1
4-
 41
1.000000
 50
38.000000
  7
STANDARD
100
AcDbText
  0
TEXT
  5
19f
100
AcDbEntity
  8
0
100
AcDbText
 10
17.865703
 20
250.153921
 40
2.475000
  1
φ
 41
1.000000
 50
38.000000
  7
BIGFONT
100
AcDbText
  0
TEXT
  5
1a2
100
AcDbEntity
  8
0
100
AcDbText
 10
20.032733
 20
251.846990
 40
2.475000
  1
3.2
 41
1.000000
 50
38.000000
  7
STANDARD
100
AcDbText
  0
LINE
  5
1a5
100
AcDbEntity
  8
0
100
AcDbLine
 10
37.575000
 20
208.750000
 11
37.575000
 21
178.050000
  0
LWPOLYLINE
  5
1a8
100
AcDbEntity
  8
0
100
AcDbPolyline
 90
     3
 70
     0
 10
37.825000
 20
207.800000
 10
37.575000
 20
208.750000
 10
37.300000
 20
207.800000
  0
LWPOLYLINE
  5
1b1
100
AcDbEntity
  8
0
100
AcDbPolyline
 90
     3
 70
     0
 10
37.300000
 20
179.025000
 10
37.575000
 20
178.050000
 10
37.825000
 20
179.025000
  0
LINE
  5
1ba
100
AcDbEntity
  8
0
100
AcDbLine
 10
39.850000
 20
208.750000
 11
35.575000
 21
208.750000
  0
LINE
  5
1bd
100
AcDbEntity
  8
0
100
AcDbLine
 10
39.850000
 20
178.050000
 11
35.575000
 21
178.050000
  0
TEXT
  5
1c0
100
AcDbEntity
  8
0
100
AcDbText
 10
37.100000
 20
194.075000
 40
2.475000
  1
30.7
 41
1.000000
 50
90.000000
  7
STANDARD
100
AcDbText
  0
LINE
  5
1c3
100
AcDbEntity
  8
0
100
AcDbLine
 10
26.025000
 20
210.900000
 11
5.225000
 21
210.900000
  0
LWPOLYLINE
  5
1c6
100
AcDbEntity
  8
0
100
AcDbPolyline
 90
     3
 70
     0
 10
25.050000
 20
210.650000
 10
26.025000
 20
210.900000
 10
25.050000
 20
211.175000
  0
LWPOLYLINE
  5
1cf
100
AcDbEntity
  8
0
100
AcDbPolyline
 90
     3
 70
     0
 10
6.175000
 20
211.175000
 10
5.225000
 20
210.900000
 10
6.175000
 20
210.650000
  0
LINE
  5
1d8
100
AcDbEntity
  8
0
100
AcDbLine
 10
26.025000
 20
208.625000
 11
26.025000
 21
212.900000
  0
LINE
  5
1db
100
AcDbEntity
  8
0
100
AcDbLine
 10
5.225000
 20
208.625000
 11
5.225000
 21
212.900000
  0
TEXT
  5
1de
100
AcDbEntity
  8
0
100
AcDbText
 10
14.075000
 20
211.375000
 40
2.475000
  1
20.8
 41
1.000000
  7
STANDARD
100
AcDbText
  0
LINE
  5
1e1
100
AcDbEntity
  8
0
100
AcDbLine
 10
26.025000
 20
216.100000
 11
54.225000
 21
216.100000
  0
LWPOLYLINE
  5
1e4
100
AcDbEntity
  8
0
100
AcDbPolyline
 90
     3
 70
     0
 10
26.975000
 20
216.375000
 10
26.025000
 20
216.100000
 10
26.975000
 20
215.850000
  0
LWPOLYLINE
  5
1ed
100
AcDbEntity
  8
0
100
AcDbPolyline
 90
     3
 70
     0
 10
53.250000
 20
215.850000
 10
54.225000
 20
216.100000
 10
53.250000
 20
216.375000
  0
LINE
  5
1f6
100
AcDbEntity
  8
0
100
AcDbLine
 10
26.025000
 20
213.850000
 11
26.025000
 21
218.100000
  0
LINE
  5
1f9
100
AcDbEntity
  8
0
100
AcDbLine
 10
54.225000
 20
213.850000
 11
54.225000
 21
218.100000
  0
TEXT
  5
1fc
100
AcDbEntity
  8
0
100
AcDbText
 10
36.475000
 20
216.600000
 40
2.475000
  1
28.2
 41
1.000000
  7
STANDARD
100
AcDbText
  0
LINE
  5
1ff
100
AcDbEntity
  8
0
100
AcDbLine
 10
61.000000
 20
212.850000
 11
61.000000
 21
208.750000
  0
LINE
  5
202
100
AcDbEntity
  8
0
100
AcDbLine
 10
61.000000
 20
218.675000
 11
61.000000
 21
212.850000
  0
LINE
  5
205
100
AcDbEntity
  8
0
100
AcDbLine
 10
61.000000
 20
204.750000
 11
61.000000
 21
208.750000
  0
LWPOLYLINE
  5
208
100
AcDbEntity
  8
0
100
AcDbPolyline
 90
     3
 70
     0
 10
60.725000
 20
213.825000
 10
61.000000
 20
212.850000
 10
61.250000
 20
213.825000
  0
LWPOLYLINE
  5
211
100
AcDbEntity
  8
0
100
AcDbPolyline
 90
     3
 70
     0
 10
61.250000
 20
207.800000
 10
61.000000
 20
208.750000
 10
60.725000
 20
207.800000
  0
LINE
  5
21a
100
AcDbEntity
  8
0
100
AcDbLine
 10
55.225000
 20
212.850000
 11
63.000000
 21
212.850000
  0
LINE
  5
21d
100
AcDbEntity
  8
0
100
AcDbLine
 10
55.225000
 20
208.750000
 11
63.000000
 21
208.750000
  0
TEXT
  5
220
100
AcDbEntity
  8
0
100
AcDbText
 10
60.525000
 20
214.550000
 40
2.475000
  1
4.1
 41
1.000000
 50
90.000000
  7
STANDARD
100
AcDbText
  0
LWPOLYLINE
  5
223
100
AcDbEntity
  8
0
100
AcDbPolyline
 90
     4
 70
     1
 43
0.400000
 10
5.225000
 20
143.550000
 10
75.025000
 20
143.550000
 10
75.025000
 20
73.750000
 10
5.225000
 20
73.750000
  0
LINE
  5
22e
100
AcDbEntity
  8
0
100
AcDbLine
 10
5.225000
 20
78.750000
 11
75.025000
 21
78.750000
  0
LINE
  5
231
100
AcDbEntity
  8
0
100
AcDbLine
 10
5.225000
 20
138.550000
 11
75.025000
 21
138.550000
  0
LINE
  5
234
100
AcDbEntity
  8
0
100
AcDbLine
 10
10.225000
 20
143.550000
 11
10.225000
 21
73.750000
  0
LINE
  5
237
100
AcDbEntity
  8
0
100
AcDbLine
 10
70.025000
 20
143.550000
 11
70.025000
 21
73.750000
  0
CIRCLE
  5
23a
100
AcDbEntity
  8
0
100
AcDbCircle
 10
10.225000
 20
78.750000
 40
1.600000
  0
CIRCLE
  5
23d
100
AcDbEntity
  8
0
100
AcDbCircle
 10
70.025000
 20
78.750000
 40
1.600000
  0
CIRCLE
  5
240
100
AcDbEntity
  8
0
100
AcDbCircle
 10
70.025000
 20
138.550000
 40
1.600000
  0
CIRCLE
  5
243
100
AcDbEntity
  8
0
100
AcDbCircle
 10
10.225000
 20
138.550000
 40
1.600000
  0
LWPOLYLINE
  5
246
100
AcDbEntity
  8
0
100
AcDbPolyline
 90
     4
 70
     1
 43
0.400000
 10
26.025000
 20
107.525000
 10
54.225000
 20
107.525000
 10
54.225000
 20
105.425000
 10
26.025000
 20
105.425000
  0
LINE
  5
251
100
AcDbEntity
  8
0
100
AcDbLine
 10
14.475000
 20
78.750000
 11
14.475000
 21
73.750000
  0
LINE
  5
254
100
AcDbEntity
  8
0
100
AcDbLine
 10
14.475000
 20
85.450000
 11
14.475000
 21
78.750000
  0
LINE
  5
257
100
AcDbEntity
  8
0
100
AcDbLine
 10
14.475000
 20
69.750000
 11
14.475000
 21
73.750000
  0
LWPOLYLINE
  5
25a
100
AcDbEntity
  8
0
100
AcDbPolyline
 90
     3
 70
     0
 10
14.200000
 20
79.725000
 10
14.475000
 20
78.750000
 10
14.725000
 20
79.725000
  0
LWPOLYLINE
  5
263
100
AcDbEntity
  8
0
100
AcDbPolyline
 90
     3
 70
     0
 10
14.725000
 20
72.800000
 10
14.475000
 20
73.750000
 10
14.200000
 20
72.800000
  0
LINE
  5
26c
100
AcDbEntity
  8
0
100
AcDbLine
 10
16.750000
 20
78.750000
 11
12.475000
 21
78.750000
  0
LINE
  5
26f
100
AcDbEntity
  8
0
100
AcDbLine
 10
16.750000
 20
73.750000
 11
12.475000
 21
73.750000
  0
TEXT
  5
272
100
AcDbEntity
  8
0
100
AcDbText
 10
14.000000
 20
81.325000
 40
2.475000
  1
5.0
 41
1.000000
 50
90.000000
  7
STANDARD
100
AcDbText
  0
LINE
  5
275
100
AcDbEntity
  8
0
100
AcDbLine
 10
5.225000
 20
133.050000
 11
10.225000
 21
133.050000
  0
LINE
  5
278
100
AcDbEntity
  8
0
100
AcDbLine
 10
0.000000
 20
133.050000
 11
5.225000
 21
133.050000
  0
LINE
  5
27b
100
AcDbEntity
  8
0
100
AcDbLine
 10
14.225000
 20
133.050000
 11
10.225000
 21
133.050000
  0
LWPOLYLINE
  5
27e
100
AcDbEntity
  8
0
100
AcDbPolyline
 90
     3
 70
     0
 10
4.250000
 20
132.800000
 10
5.225000
 20
133.050000
 10
4.250000
 20
133.325000
  0
LWPOLYLINE
  5
287
100
AcDbEntity
  8
0
100
AcDbPolyline
 90
     3
 70
     0
 10
11.175000
 20
133.325000
 10
10.225000
 20
133.050000
 10
11.175000
 20
132.800000
  0
LINE
  5
290
100
AcDbEntity
  8
0
100
AcDbLine
 10
10.225000
 20
130.800000
 11
10.225000
 21
135.050000
  0
LINE
  5
293
100
AcDbEntity
  8
0
100
AcDbLine
 10
5.225000
 20
130.800000
 11
5.225000
 21
135.050000
  0
TEXT
  5
296
100
AcDbEntity
  8
0
100
AcDbText
 10
-0.000000000000000
 20
133.550000
 40
2.475000
  1
5.0
 41
1.000000
  7
STANDARD
100
AcDbText
  0
LINE
  5
299
100
AcDbEntity
  8
0
100
AcDbLine
 10
8.975000
 20
137.575000
 11
11.475000
 21
139.525000
  0
LINE
  5
29c
100
AcDbEntity
  8
0
100
AcDbLine
 10
24.350000
 20
149.500000
 11
11.475000
 21
139.525000
  0
LINE
  5
29f
100
AcDbEntity
  8
0
100
AcDbLine
 10
5.800000
 20
135.125000
 11
8.975000
 21
137.575000
  0
LWPOLYLINE
  5
2a2
100
AcDbEntity
  8
0
100
AcDbPolyline
 90
     3
 70
     0
 10
12.075000
 20
140.325000
 10
11.475000
 20
139.525000
 10
12.375000
 20
139.925000
  0
LWPOLYLINE
  5
2ab
100
AcDbEntity
  8
0
100
AcDbPolyline
 90
     3
 70
     0
 10
8.350000
 20
136.800000
 10
8.975000
 20
137.575000
 10
8.050000
 20
137.200000
  0
TEXT
  5
2b4
100
AcDbEntity
  8
0
100
AcDbText
 10
15.698673
 20
144.160852
 40
2.475000
  1
4-
 41
1.000000
 50
38.000000
  7
STANDARD
100
AcDbText
  0
TEXT
  5
2b7
100
AcDbEntity
  8
0
100
AcDbText
 10
17.865703
 20
145.853921
 40
2.475000
  1
φ
 41
1.000000
 50
38.000000
  7
BIGFONT
100
AcDbText
  0
TEXT
  5
2ba
100
AcDbEntity
  8
0
100
AcDbText
 10
20.032733
 20
147.546990
 40
2.475000
  1
3.2
 41
1.000000
 50
38.000000
  7
STANDARD
100
AcDbText
  0
LINE
  5
2bd
100
AcDbEntity
  8
0
100
AcDbLine
 10
26.025000
 20
106.600000
 11
5.225000
 21
106.600000
  0
LWPOLYLINE
  5
2c0
100
AcDbEntity
  8
0
100
AcDbPolyline
 90
     3
 70
     0
 10
25.050000
 20
106.350000
 10
26.025000
 20
106.600000
 10
25.050000
 20
106.875000
  0
LWPOLYLINE
  5
2c9
100
AcDbEntity
  8
0
100
AcDbPolyline
 90
     3
 70
     0
 10
6.175000
 20
106.875000
 10
5.225000
 20
106.600000
 10
6.175000
 20
106.350000
  0
LINE
  5
2d2
100
AcDbEntity
  8
0
100
AcDbLine
 10
26.025000
 20
104.325000
 11
26.025000
 21
108.600000
  0
LINE
  5
2d5
100
AcDbEntity
  8
0
100
AcDbLine
 10
5.225000
 20
104.325000
 11
5.225000
 21
108.600000
  0
TEXT
  5
2d8
100
AcDbEntity
  8
0
100
AcDbText
 10
14.075000
 20
107.075000
 40
2.475000
  1
20.8
 41
1.000000
  7
STANDARD
100
AcDbText
  0
LINE
  5
2db
100
AcDbEntity
  8
0
100
AcDbLine
 10
26.025000
 20
110.275000
 11
54.225000
 21
110.275000
  0
LWPOLYLINE
  5
2de
100
AcDbEntity
  8
0
100
AcDbPolyline
 90
     3
 70
     0
 10
26.975000
 20
110.550000
 10
26.025000
 20
110.275000
 10
26.975000
 20
110.025000
  0
LWPOLYLINE
  5
2e7
100
AcDbEntity
  8
0
100
AcDbPolyline
 90
     3
 70
     0
 10
53.250000
 20
110.025000
 10
54.225000
 20
110.275000
 10
53.250000
 20
110.550000
  0
LINE
  5
2f0
100
AcDbEntity
  8
0
100
AcDbLine
 10
26.025000
 20
108.025000
 11
26.025000
 21
112.275000
  0
LINE
  5
2f3
100
AcDbEntity
  8
0
100
AcDbLine
 10
54.225000
 20
108.025000
 11
54.225000
 21
112.275000
  0
TEXT
  5
2f6
100
AcDbEntity
  8
0
100
AcDbText
 10
36.475000
 20
110.775000
 40
2.475000
  1
28.2
 41
1.000000
  7
STANDARD
100
AcDbText
  0
LINE
  5
2f9
100
AcDbEntity
  8
0
100
AcDbLine
 10
37.225000
 20
105.425000
 11
37.225000
 21
73.750000
  0
LWPOLYLINE
  5
2fc
100
AcDbEntity
  8
0
100
AcDbPolyline
 90
     3
 70
     0
 10
37.475000
 20
104.475000
 10
37.225000
 20
105.425000
 10
36.950000
 20
104.475000
  0
LWPOLYLINE
  5
305
100
AcDbEntity
  8
0
100
AcDbPolyline
 90
     3
 70
     0
 10
36.950000
 20
74.725000
 10
37.225000
 20
73.750000
 10
37.475000
 20
74.725000
  0
LINE
  5
30e
100
AcDbEntity
  8
0
100
AcDbLine
 10
39.500000
 20
105.425000
 11
35.225000
 21
105.425000
  0
LINE
  5
311
100
AcDbEntity
  8
0
100
AcDbLine
 10
39.500000
 20
73.750000
 11
35.225000
 21
73.750000
  0
TEXT
  5
314
100
AcDbEntity
  8
0
100
AcDbText
 10
36.750000
 20
90.250000
 40
2.475000
  1
31.7
 41
1.000000
 50
90.000000
  7
STANDARD
100
AcDbText
  0
LINE
  5
317
100
AcDbEntity
  8
0
100
AcDbLine
 10
30.025000
 20
124.725000
 11
30.025000
 21
115.275000
  0
LINE
  5
31a
100
AcDbEntity
  8
0
100
AcDbLine
 10
33.350000
 20
119.850000
 11
26.725000
 21
119.850000
  0
LINE
  5
31d
100
AcDbEntity
  8
0
100
AcDbLine
 10
31.725000
 20
119.850000
 11
31.725000
 21
73.750000
  0
LWPOLYLINE
  5
320
100
AcDbEntity
  8
0
100
AcDbPolyline
 90
     3
 70
     0
 10
31.975000
 20
118.900000
 10
31.725000
 20
119.850000
 10
31.450000
 20
118.900000
  0
LWPOLYLINE
  5
329
100
AcDbEntity
  8
0
100
AcDbPolyline
 90
     3
 70
     0
 10
31.450000
 20
74.725000
 10
31.725000
 20
73.750000
 10
31.975000
 20
74.725000
  0
LINE
  5
332
100
AcDbEntity
  8
0
100
AcDbLine
 10
34.000000
 20
119.850000
 11
29.725000
 21
119.850000
  0
LINE
  5
335
100
AcDbEntity
  8
0
100
AcDbLine
 10
34.000000
 20
73.750000
 11
29.725000
 21
73.750000
  0
TEXT
  5
338
100
AcDbEntity
  8
0
100
AcDbText
 10
31.250000
 20
94.000000
 40
2.475000
  1
46.1
 41
1.000000
 50
90.000000
  7
STANDARD
100
AcDbText
  0
LINE
  5
33b
100
AcDbEntity
  8
0
100
AcDbLine
 10
81.800000
 20
247.850000
 11
81.800000
 21
178.050000
  0
LWPOLYLINE
  5
33e
100
AcDbEntity
  8
0
100
AcDbPolyline
 90
     3
 70
     0
 10
82.050000
 20
246.900000
 10
81.800000
 20
247.850000
 10
81.525000
 20
246.900000
  0
LWPOLYLINE
  5
347
100
AcDbEntity
  8
0
100
AcDbPolyline
 90
     3
 70
     0
 10
81.525000
 20
179.025000
 10
81.800000
 20
178.050000
 10
82.050000
 20
179.025000
  0
LINE
  5
350
100
AcDbEntity
  8
0
100
AcDbLine
 10
76.025000
 20
247.850000
 11
83.800000
 21
247.850000
  0
LINE
  5
353
100
AcDbEntity
  8
0
100
AcDbLine
 10
76.025000
 20
178.050000
 11
83.800000
 21
178.050000
  0
TEXT
  5
356
100
AcDbEntity
  8
0
100
AcDbText
 10
81.325000
 20
209.325000
 40
2.475000
  1
69.8
 41
1.000000
 50
90.000000
  7
STANDARD
100
AcDbText
  0
LINE
  5
359
100
AcDbEntity
  8
0
100
AcDbLine
 10
5.225000
 20
174.200000
 11
75.025000
 21
174.200000
  0
LWPOLYLINE
  5
35c
100
AcDbEntity
  8
0
100
AcDbPolyline
 90
     3
 70
     0
 10
6.175000
 20
174.475000
 10
5.225000
 20
174.200000
 10
6.175000
 20
173.950000
  0
LWPOLYLINE
  5
365
100
AcDbEntity
  8
0
100
AcDbPolyline
 90
     3
 70
     0
 10
74.050000
 20
173.950000
 10
75.025000
 20
174.200000
 10
74.050000
 20
174.475000
  0
LINE
  5
36e
100
AcDbEntity
  8
0
100
AcDbLine
 10
5.225000
 20
171.950000
 11
5.225000
 21
176.200000
  0
LINE
  5
371
100
AcDbEntity
  8
0
100
AcDbLine
 10
75.025000
 20
171.950000
 11
75.025000
 21
176.200000
  0
TEXT
  5
374
100
AcDbEntity
  8
0
100
AcDbText
 10
40.725000
 20
174.700000
 40
2.475000
  1
69.8
 41
1.000000
  7
STANDARD
100
AcDbText
  0
LINE
  5
377
100
AcDbEntity
  8
0
100
AcDbLine
 10
26.025000
 20
212.850000
 11
26.025000
 21
208.750000
  0
CIRCLE
  5
37a
100
AcDbEntity
  8
0
100
AcDbCircle
 10
54.950000
 20
118.825000
 40
5.000000
  0
LWPOLYLINE
  5
37d
100
AcDbEntity
  8
0
100
AcDbPolyline
 90
     4
 70
     1
 43
0.400000
 10
48.650000
 20
125.125000
 10
61.250000
 20
125.125000
 10
61.250000
 20
112.525000
 10
48.650000
 20
112.525000
  0
LINE
  5
388
100
AcDbEntity
  8
0
100
AcDbLine
 10
61.000000
 20
107.525000
 11
61.000000
 21
105.425000
  0
LINE
  5
38b
100
AcDbEntity
  8
0
100
AcDbLine
 10
61.000000
 20
111.525000
 11
61.000000
 21
107.525000
  0
LINE
  5
38e
100
AcDbEntity
  8
0
100
AcDbLine
 10
61.000000
 20
100.650000
 11
61.000000
 21
105.425000
  0
LWPOLYLINE
  5
391
100
AcDbEntity
  8
0
100
AcDbPolyline
 90
     3
 70
     0
 10
60.725000
 20
108.500000
 10
61.000000
 20
107.525000
 10
61.250000
 20
108.500000
  0
LWPOLYLINE
  5
39a
100
AcDbEntity
  8
0
100
AcDbPolyline
 90
     3
 70
     0
 10
61.250000
 20
104.475000
 10
61.000000
 20
105.425000
 10
60.725000
 20
104.475000
  0
LINE
  5
3a3
100
AcDbEntity
  8
0
100
AcDbLine
 10
55.225000
 20
107.525000
 11
63.000000
 21
107.525000
  0
LINE
  5
3a6
100
AcDbEntity
  8
0
100
AcDbLine
 10
55.225000
 20
105.425000
 11
63.000000
 21
105.425000
  0
TEXT
  5
3a9
100
AcDbEntity
  8
0
100
AcDbText
 10
60.525000
 20
100.625000
 40
2.475000
  1
2.1
 41
1.000000
 50
90.000000
  7
STANDARD
100
AcDbText
  0
LINE
  5
3ac
100
AcDbEntity
  8
0
100
AcDbLine
 10
45.375000
 20
112.525000
 11
45.375000
 21
125.125000
  0
LWPOLYLINE
  5
3af
100
AcDbEntity
  8
0
100
AcDbPolyline
 90
     3
 70
     0
 10
45.100000
 20
113.500000
 10
45.375000
 20
112.525000
 10
45.625000
 20
113.500000
  0
LWPOLYLINE
  5
3b8
100
AcDbEntity
  8
0
100
AcDbPolyline
 90
     3
 70
     0
 10
45.625000
 20
124.175000
 10
45.375000
 20
125.125000
 10
45.100000
 20
124.175000
  0
LINE
  5
3c1
100
AcDbEntity
  8
0
100
AcDbLine
 10
47.650000
 20
112.525000
 11
43.375000
 21
112.525000
  0
LINE
  5
3c4
100
AcDbEntity
  8
0
100
AcDbLine
 10
47.650000
 20
125.125000
 11
43.375000
 21
125.125000
  0
TEXT
  5
3c7
100
AcDbEntity
  8
0
100
AcDbText
 10
44.900000
 20
116.375000
 40
2.475000
  1
12.6
 41
1.000000
 50
90.000000
  7
STANDARD
100
AcDbText
  0
LINE
  5
3ca
100
AcDbEntity
  8
0
100
AcDbLine
 10
48.650000
 20
128.400000
 11
61.250000
 21
128.400000
  0
LWPOLYLINE
  5
3cd
100
AcDbEntity
  8
0
100
AcDbPolyline
 90
     3
 70
     0
 10
49.600000
 20
128.675000
 10
48.650000
 20
128.400000
 10
49.600000
 20
128.150000
  0
LWPOLYLINE
  5
3d6
100
AcDbEntity
  8
0
100
AcDbPolyline
 90
     3
 70
     0
 10
60.275000
 20
128.150000
 10
61.250000
 20
128.400000
 10
60.275000
 20
128.675000
  0
LINE
  5
3df
100
AcDbEntity
  8
0
100
AcDbLine
 10
48.650000
 20
126.125000
 11
48.650000
 21
130.400000
  0
LINE
  5
3e2
100
AcDbEntity
  8
0
100
AcDbLine
 10
61.250000
 20
126.125000
 11
61.250000
 21
130.400000
  0
TEXT
  5
3e5
100
AcDbEntity
  8
0
100
AcDbText
 10
51.675000
 20
128.875000
 40
2.475000
  1
12.6
 41
1.000000
  7
STANDARD
100
AcDbText
  0
LINE
  5
3e8
100
AcDbEntity
  8
0
100
AcDbLine
 10
61.250000
 20
114.700000
 11
75.025000
 21
114.700000
  0
LWPOLYLINE
  5
3eb
100
AcDbEntity
  8
0
100
AcDbPolyline
 90
     3
 70
     0
 10
62.200000
 20
114.975000
 10
61.250000
 20
114.700000
 10
62.200000
 20
114.450000
  0
LWPOLYLINE
  5
3f4
100
AcDbEntity
  8
0
100
AcDbPolyline
 90
     3
 70
     0
 10
74.050000
 20
114.450000
 10
75.025000
 20
114.700000
 10
74.050000
 20
114.975000
  0
LINE
  5
3fd
100
AcDbEntity
  8
0
100
AcDbLine
 10
61.250000
 20
120.450000
 11
61.250000
 21
112.700000
  0
LINE
  5
400
100
AcDbEntity
  8
0
100
AcDbLine
 10
75.025000
 20
120.450000
 11
75.025000
 21
112.700000
  0
TEXT
  5
403
100
AcDbEntity
  8
0
100
AcDbText
 10
63.650000
 20
115.200000
 40
2.475000
  1
13.8
 41
1.000000
  7
STANDARD
100
AcDbText
  0
LINE
  5
406
100
AcDbEntity
  8
0
100
AcDbLine
 10
62.925000
 20
112.525000
 11
62.925000
 21
73.750000
  0
LWPOLYLINE
  5
409
100
AcDbEntity
  8
0
100
AcDbPolyline
 90
     3
 70
     0
 10
63.175000
 20
111.575000
 10
62.925000
 20
112.525000
 10
62.650000
 20
111.575000
  0
LWPOLYLINE
  5
412
100
AcDbEntity
  8
0
100
AcDbPolyline
 90
     3
 70
     0
 10
62.650000
 20
74.725000
 10
62.925000
 20
73.750000
 10
63.175000
 20
74.725000
  0
LINE
  5
41b
100
AcDbEntity
  8
0
100
AcDbLine
 10
57.200000
 20
112.525000
 11
64.925000
 21
112.525000
  0
LINE
  5
41e
100
AcDbEntity
  8
0
100
AcDbLine
 10
57.200000
 20
73.750000
 11
64.925000
 21
73.750000
  0
TEXT
  5
421
100
AcDbEntity
  8
0
100
AcDbText
 10
62.450000
 20
89.550000
 40
2.475000
  1
38.8
 41
1.000000
 50
90.000000
  7
STANDARD
100
AcDbText
  0
MTEXT
  5
424
100
AcDbEntity
  8
0
100
AcDbMText
 10
26.400000
 20
169.450000
 40
3.175000
 41
55.675000
 71
     1
 72
     5
  1
\T1.1;\fＭＳ ゴシック|b0|i0|c128|p18;[底面　基板寸法図]
  7
BIGFONT
  0
MTEXT
  5
427
100
AcDbEntity
  8
0
100
AcDbMText
 10
26.400000
 20
58.225000
 40
3.175000
 41
59.175000
 71
     1
 72
     5
  1
\T1.1;\fＭＳ ゴシック|b0|i0|c128|p18;[上面　基板寸法図]
  7
BIGFONT
  0
CIRCLE
  5
42a
100
AcDbEntity
  8
0
100
AcDbCircle
 10
23.050000
 20
118.225000
 40
2.700000
  0
CIRCLE
  5
42d
100
AcDbEntity
  8
0
100
AcDbCircle
 10
30.025000
 20
119.850000
 40
1.575000
  0
LINE
  5
430
100
AcDbEntity
  8
0
100
AcDbLine
 10
23.050000
 20
120.050000
 11
5.225000
 21
120.050000
  0
LWPOLYLINE
  5
433
100
AcDbEntity
  8
0
100
AcDbPolyline
 90
     3
 70
     0
 10
22.075000
 20
119.800000
 10
23.050000
 20
120.050000
 10
22.075000
 20
120.325000
  0
LWPOLYLINE
  5
43c
100
AcDbEntity
  8
0
100
AcDbPolyline
 90
     3
 70
     0
 10
6.175000
 20
120.325000
 10
5.225000
 20
120.050000
 10
6.175000
 20
119.800000
  0
LINE
  5
445
100
AcDbEntity
  8
0
100
AcDbLine
 10
23.050000
 20
117.775000
 11
23.050000
 21
122.050000
  0
LINE
  5
448
100
AcDbEntity
  8
0
100
AcDbLine
 10
5.225000
 20
117.775000
 11
5.225000
 21
122.050000
  0
TEXT
  5
44b
100
AcDbEntity
  8
0
100
AcDbText
 10
11.975000
 20
120.525000
 40
2.475000
  1
17.8
 41
1.000000
  7
STANDARD
100
AcDbText
  0
LINE
  5
44e
100
AcDbEntity
  8
0
100
AcDbLine
 10
27.325000
 20
118.225000
 11
16.500000
 21
118.225000
  0
LINE
  5
451
100
AcDbEntity
  8
0
100
AcDbLine
 10
19.400000
 20
118.225000
 11
19.400000
 21
73.750000
  0
LWPOLYLINE
  5
454
100
AcDbEntity
  8
0
100
AcDbPolyline
 90
     3
 70
     0
 10
19.650000
 20
117.275000
 10
19.400000
 20
118.225000
 10
19.125000
 20
117.275000
  0
LWPOLYLINE
  5
45d
100
AcDbEntity
  8
0
100
AcDbPolyline
 90
     3
 70
     0
 10
19.125000
 20
74.725000
 10
19.400000
 20
73.750000
 10
19.650000
 20
74.725000
  0
LINE
  5
466
100
AcDbEntity
  8
0
100
AcDbLine
 10
21.675000
 20
118.225000
 11
17.400000
 21
118.225000
  0
LINE
  5
469
100
AcDbEntity
  8
0
100
AcDbLine
 10
21.675000
 20
73.750000
 11
17.400000
 21
73.750000
  0
TEXT
  5
46c
100
AcDbEntity
  8
0
100
AcDbText
 10
18.925000
 20
94.850000
 40
2.475000
  1
44.5
 41
1.000000
 50
90.000000
  7
STANDARD
100
AcDbText
  0
LINE
  5
46f
100
AcDbEntity
  8
0
100
AcDbLine
 10
23.050000
 20
122.575000
 11
23.050000
 21
113.875000
  0
LINE
  5
472
100
AcDbEntity
  8
0
100
AcDbLine
 10
30.025000
 20
111.800000
 11
5.225000
 21
111.800000
  0
LWPOLYLINE
  5
475
100
AcDbEntity
  8
0
100
AcDbPolyline
 90
     3
 70
     0
 10
29.050000
 20
111.550000
 10
30.025000
 20
111.800000
 10
29.050000
 20
112.075000
  0
LWPOLYLINE
  5
47e
100
AcDbEntity
  8
0
100
AcDbPolyline
 90
     3
 70
     0
 10
6.175000
 20
112.075000
 10
5.225000
 20
111.800000
 10
6.175000
 20
111.550000
  0
LINE
  5
487
100
AcDbEntity
  8
0
100
AcDbLine
 10
30.025000
 20
117.525000
 11
30.025000
 21
109.800000
  0
LINE
  5
48a
100
AcDbEntity
  8
0
100
AcDbLine
 10
5.225000
 20
117.525000
 11
5.225000
 21
109.800000
  0
TEXT
  5
48d
100
AcDbEntity
  8
0
100
AcDbText
 10
11.925000
 20
112.275000
 40
2.475000
  1
24.8
 41
1.000000
  7
STANDARD
100
AcDbText
  0
CIRCLE
  5
490
100
AcDbEntity
  8
0
100
AcDbCircle
 10
30.025000
 20
119.850000
 40
1.575000
  0
LINE
  5
493
100
AcDbEntity
  8
0
100
AcDbLine
 10
28.800000
 20
118.850000
 11
31.250000
 21
120.850000
  0
LINE
  5
496
100
AcDbEntity
  8
0
100
AcDbLine
 10
37.700000
 20
126.050000
 11
31.250000
 21
120.850000
  0
LINE
  5
499
100
AcDbEntity
  8
0
100
AcDbLine
 10
25.675000
 20
116.350000
 11
28.800000
 21
118.850000
  0
LWPOLYLINE
  5
49c
100
AcDbEntity
  8
0
100
AcDbPolyline
 90
     3
 70
     0
 10
31.825000
 20
121.675000
 10
31.250000
 20
120.850000
 10
32.150000
 20
121.275000
  0
LWPOLYLINE
  5
4a5
100
AcDbEntity
  8
0
100
AcDbPolyline
 90
     3
 70
     0
 10
28.200000
 20
118.050000
 10
28.800000
 20
118.850000
 10
27.875000
 20
118.450000
  0
TEXT
  5
4ae
100
AcDbEntity
  8
0
100
AcDbText
 10
31.892130
 20
121.999561
 40
2.475000
  1
φ
 41
1.000000
 50
39.000000
  7
BIGFONT
100
AcDbText
  0
TEXT
  5
4b1
100
AcDbEntity
  8
0
100
AcDbText
 10
34.029282
 20
123.730192
 40
2.475000
  1
3.2
 41
1.000000
 50
39.000000
  7
STANDARD
100
AcDbText
  0
CIRCLE
  5
4b4
100
AcDbEntity
  8
0
100
AcDbCircle
 10
23.050000
 20
118.225000
 40
2.700000
  0
LINE
  5
4b7
100
AcDbEntity
  8
0
100
AcDbLine
 10
21.475000
 20
116.025000
 11
24.625000
 21
120.425000
  0
LINE
  5
4ba
100
AcDbEntity
  8
0
100
AcDbLine
 10
29.400000
 20
127.075000
 11
24.625000
 21
120.425000
  0
LINE
  5
4bd
100
AcDbEntity
  8
0
100
AcDbLine
 10
19.150000
 20
112.775000
 11
21.475000
 21
116.025000
  0
LWPOLYLINE
  5
4c0
100
AcDbEntity
  8
0
100
AcDbPolyline
 90
     3
 70
     0
 10
24.975000
 20
121.375000
 10
24.625000
 20
120.425000
 10
25.375000
 20
121.075000
  0
LWPOLYLINE
  5
4c9
100
AcDbEntity
  8
0
100
AcDbPolyline
 90
     3
 70
     0
 10
21.100000
 20
115.100000
 10
21.475000
 20
116.025000
 10
20.700000
 20
115.400000
  0
TEXT
  5
4d2
100
AcDbEntity
  8
0
100
AcDbText
 10
24.947174
 20
121.604949
 40
2.475000
  1
φ
 41
1.000000
 50
55.000000
  7
BIGFONT
100
AcDbText
  0
TEXT
  5
4d5
100
AcDbEntity
  8
0
100
AcDbText
 10
26.524509
 20
123.857617
 40
2.475000
  1
5.4
 41
1.000000
 50
55.000000
  7
STANDARD
100
AcDbText
  0
LINE
  5
4d8
100
AcDbEntity
  8
0
100
AcDbLine
 10
81.750000
 20
143.550000
 11
81.750000
 21
73.750000
  0
LWPOLYLINE
  5
4db
100
AcDbEntity
  8
0
100
AcDbPolyline
 90
     3
 70
     0
 10
82.000000
 20
142.600000
 10
81.750000
 20
143.550000
 10
81.475000
 20
142.600000
  0
LWPOLYLINE
  5
4e4
100
AcDbEntity
  8
0
100
AcDbPolyline
 90
     3
 70
     0
 10
81.475000
 20
74.725000
 10
81.750000
 20
73.750000
 10
82.000000
 20
74.725000
  0
LINE
  5
4ed
100
AcDbEntity
  8
0
100
AcDbLine
 10
76.025000
 20
143.550000
 11
83.750000
 21
143.550000
  0
LINE
  5
4f0
100
AcDbEntity
  8
0
100
AcDbLine
 10
76.025000
 20
73.750000
 11
83.750000
 21
73.750000
  0
TEXT
  5
4f3
100
AcDbEntity
  8
0
100
AcDbText
 10
81.275000
 20
103.075000
 40
2.475000
  1
69.8
 41
1.000000
 50
90.000000
  7
STANDARD
100
AcDbText
  0
LINE
  5
4f6
100
AcDbEntity
  8
0
100
AcDbLine
 10
75.025000
 20
67.025000
 11
5.225000
 21
67.025000
  0
LWPOLYLINE
  5
4f9
100
AcDbEntity
  8
0
100
AcDbPolyline
 90
     3
 70
     0
 10
74.050000
 20
66.775000
 10
75.025000
 20
67.025000
 10
74.050000
 20
67.300000
  0
LWPOLYLINE
  5
502
100
AcDbEntity
  8
0
100
AcDbPolyline
 90
     3
 70
     0
 10
6.175000
 20
67.300000
 10
5.225000
 20
67.025000
 10
6.175000
 20
66.775000
  0
LINE
  5
50b
100
AcDbEntity
  8
0
100
AcDbLine
 10
75.025000
 20
72.750000
 11
75.025000
 21
65.025000
  0
LINE
  5
50e
100
AcDbEntity
  8
0
100
AcDbLine
 10
5.225000
 20
72.750000
 11
5.225000
 21
65.025000
  0
TEXT
  5
511
100
AcDbEntity
  8
0
100
AcDbText
 10
38.050000
 20
67.500000
 40
2.475000
  1
69.8
 41
1.000000
  7
STANDARD
100
AcDbText
  0
ENDSEC
  0
SECTION
  2
OBJECTS
  0
DICTIONARY
  5
51c
100
AcDbDictionary
  3
ACAD_GROUP
350
51d
  3
ACAD_MLINESTYLE
350
51e
  3
CONTENTDICTIONARY
350
51f
  0
DICTIONARY
  5
51d
102
{ACAD_REACTORS
330
51c
102
}
100
AcDbDictionary
  0
DICTIONARY
  5
51e
102
{ACAD_REACTORS
330
51c
102
}
100
AcDbDictionary
  3
STANDARD
350
520
  0
DICTIONARY
  5
51f
102
{ACAD_REACTORS
330
51c
102
}
100
AcDbDictionary
  0
MLINESTYLE
  5
520
102
{ACAD_REACTORS
330
51e
102
}
100
AcDbMlineStyle
  2
STANDARD
 70
     0
  3
 
 62
   256
 51
90.000000
 52
90.000000
 71
     2
 49
0.500000
 62
   256
  6
BYLAYER
 49
-0.500000
 62
   256
  6
BYLAYER
  0
ENDSEC
  0
EOF
