  0
SECTION
  2
HEADER
  9
$ACADVER
  1
AC1014
  9
$ACADMAINTVER
 70
     0
  9
$DWGCODEPAGE
  3
ANSI_932
  9
$INSBASE
 10
0.000000
 20
0.000000
 30
0.000000
  9
$EXTMIN
 10
0.000000
 20
0.000000
 30
0.000000
  9
$EXTMAX
 10
172.000000
 20
241.920000
 30
0.000000
  9
$LIMMIN
 10
0.000000
 20
0.000000
  9
$LIMMAX
 10
172.000000
 20
241.920000
  9
$ORTHOMODE
 70
     0
  9
$REGENMODE
 70
     1
  9
$FILLMODE
 70
     1
  9
$QTEXTMODE
 70
     0
  9
$MIRRTEXT
 70
     1
  9
$DRAGMODE
 70
     2
  9
$LTSCALE
 40
1.000000
  9
$OSMODE
 70
     0
  9
$ATTMODE
 70
     1
  9
$TEXTSIZE
 40
2.500000
  9
$TRACEWID
 40
1.000000
  9
$TEXTSTYLE
  7
BIGFONT
  9
$CLAYER
  8
0
  9
$CELTYPE
  6
BYLAYER
  9
$CECOLOR
 62
   256
  9
$CELTSCALE
 40
1.000000
  9
$DELOBJ
 70
     1
  9
$DISPSILH
 70
     0
  9
$DIMSCALE
 40
1.000000
  9
$DIMASZ
 40
2.500000
  9
$DIMEXO
 40
0.625000
  9
$DIMDLI
 40
3.750000
  9
$DIMRND
 40
0.000000
  9
$DIMDLE
 40
0.000000
  9
$DIMEXE
 40
1.250000
  9
$DIMTP
 40
0.000000
  9
$DIMTM
 40
0.000000
  9
$DIMTXT
 40
2.500000
  9
$DIMCEN
 40
2.500000
  9
$DIMTSZ
 40
0.000000
  9
$DIMTOL
 70
     0
  9
$DIMLIM
 70
     0
  9
$DIMTIH
 70
     0
  9
$DIMTOH
 70
     0
  9
$DIMSE1
 70
     0
  9
$DIMSE2
 70
     0
  9
$DIMTAD
 70
     1
  9
$DIMZIN
 70
     8
  9
$DIMBLK
  1

  9
$DIMASO
 70
     1
  9
$DIMSHO
 70
     1
  9
$DIMPOST
  1

  9
$DIMAPOST
  1

  9
$DIMALT
 70
     0
  9
$DIMALTD
 70
     4
  9
$DIMALTF
 40
0.039400
  9
$DIMLFAC
 40
1.000000
  9
$DIMTOFL
 70
     1
  9
$DIMTVP
 40
0.000000
  9
$DIMTIX
 70
     0
  9
$DIMSOXD
 70
     0
  9
$DIMSAH
 70
     0
  9
$DIMBLK1
  1

  9
$DIMBLK2
  1

  9
$DIMSTYLE
  2
STANDARD
  9
$DIMCLRD
 70
     0
  9
$DIMCLRE
 70
     0
  9
$DIMCLRT
 70
     0
  9
$DIMTFAC
 40
1.000000
  9
$DIMGAP
 40
0.625000
  9
$DIMJUST
 70
     0
  9
$DIMSD1
 70
     0
  9
$DIMSD2
 70
     0
  9
$DIMTOLJ
 70
     1
  9
$DIMTZIN
 70
     0
  9
$DIMALTZ
 70
     0
  9
$DIMALTTZ
 70
     0
  9
$DIMFIT
 70
     3
  9
$DIMUPT
 70
     0
  9
$DIMUNIT
 70
     8
  9
$DIMDEC
 70
     4
  9
$DIMTDEC
 70
     4
  9
$DIMALTU
 70
     8
  9
$DIMALTTD
 70
     4
  9
$DIMTXSTY
  7
STANDARD
  9
$DIMAUNIT
 70
     0
  9
$LUNITS
 70
     2
  9
$LUPREC
 70
     4
  9
$AXISMODE
 70
     0
  9
$SKETCHINC
 40
1.000000
  9
$FILLETRAD
 40
10.000000
  9
$AUNITS
 70
     0
  9
$AUPREC
 70
     0
  9
$MENU
  1
acad
  9
$ELEVATION
 40
0.000000
  9
$PELEVATION
 40
0.000000
  9
$THICKNESS
 40
0.000000
  9
$LIMCHECK
 70
     0
  9
$BLIPMODE
 70
     0
  9
$CHAMFERA
 40
10.000000
  9
$CHAMFERB
 40
10.000000
  9
$CHAMFERC
 40
20.000000
  9
$CHAMFERD
 40
0.000000
  9
$SKPOLY
 70
     0
  9
$TDCREATE
 40
2447851.677998
  9
$TDUPDATE
 40
2447851.677998
  9
$TDINDWG
 40
0.000000
  9
$TDUSRTIMER
 40
0.000000
  9
$USRTIMER
 70
     1
  9
$ANGBASE
 50
0.000000
  9
$ANGDIR
 70
     0
  9
$PDMODE
 70
     0
  9
$PDSIZE
 40
0.000000
  9
$PLINEWID
 40
0.000000
  9
$COORDS
 70
     1
  9
$SPLFRAME
 70
     0
  9
$SPLINETYPE
 70
     6
  9
$SPLINESEGS
 70
     8
  9
$ATTDIA
 70
     0
  9
$ATTREQ
 70
     1
  9
$HANDLING
 70
     1
  9
$HANDSEED
  5
FFFFFFF
  9
$SURFTAB1
 70
     6
  9
$SURFTAB2
 70
     6
  9
$SURFTYPE
 70
     6
  9
$SURFU
 70
     6
  9
$SURFV
 70
     6
  9
$UCSNAME
  2

  9
$UCSORG
 10
0.000000
 20
0.000000
 30
0.000000
  9
$UCSXDIR
 10
1.000000
 20
0.000000
 30
0.000000
  9
$UCSYDIR
 10
0.000000
 20
1.000000
 30
0.000000
  9
$PUCSNAME
  2

  9
$PUCSORG
 10
0.000000
 20
0.000000
 30
0.000000
  9
$PUCSXDIR
 10
1.000000
 20
0.000000
 30
0.000000
  9
$PUCSYDIR
 10
0.000000
 20
1.000000
 30
0.000000
  9
$USERI1
 70
     0
  9
$USERI2
 70
     0
  9
$USERI3
 70
     0
  9
$USERI4
 70
     0
  9
$USERI5
 70
     0
  9
$USERR1
 40
0.000000
  9
$USERR2
 40
0.000000
  9
$USERR3
 40
0.000000
  9
$USERR4
 40
0.000000
  9
$USERR5
 40
0.000000
  9
$WORLDVIEW
 70
     1
  9
$SHADEDGE
 70
     3
  9
$SHADEDIF
 70
    70
  9
$TILEMODE
 70
     1
  9
$MAXACTVP
 70
    48
  9
$PINSBASE
 10
0.000000
 20
0.000000
 30
0.000000
  9
$PLIMCHECK
 70
     0
  9
$PEXTMIN
 10
100000000000000000000.000000
 20
100000000000000000000.000000
 30
100000000000000000000.000000
  9
$PEXTMAX
 10
-100000000000000000000.000000
 20
-100000000000000000000.000000
 30
-100000000000000000000.000000
  9
$PLIMMIN
 10
0.000000
 20
0.000000
  9
$PLIMMAX
 10
172.000000
 20
241.920000
  9
$UNITMODE
 70
     0
  9
$VISRETAIN
 70
     1
  9
$PLINEGEN
 70
     0
  9
$PSLTSCALE
 70
     1
  9
$TREEDEPTH
 70
  3020
  9
$PICKSTYLE
 70
     1
  9
$CMLSTYLE
  2
STANDARD
  9
$CMLJUST
 70
     0
  9
$CMLSCALE
 40
20.000000
  9
$PROXYGRAPHICS
 70
     1
  9
$MEASUREMENT
 70
     1
  0
ENDSEC
  0
SECTION
  2
TABLES
  0
TABLE
  2
VPORT
  5
a2
100
AcDbSymbolTable
 70
     2
  0
VPORT
  5
a5
100
AcDbSymbolTableRecord
100
AcDbViewportTableRecord
  2
*ACTIVE
 70
     0
 10
0.000000
 20
0.000000
 11
1.000000
 21
1.000000
 12
300.000000
 22
200.000000
 13
0.000000
 23
0.000000
 14
10.000000
 24
10.000000
 15
10.000000
 25
10.000000
 16
0.000000
 26
0.000000
 36
1.000000
 17
0.000000
 27
0.000000
 37
0.000000
 40
300.000000
 41
1.600432
 42
50.000000
 43
0.000000
 44
0.000000
 50
0.000000
 51
0.000000
 71
     0
 72
   100
 73
     1
 74
     1
 75
     0
 76
     0
 77
     0
 78
     0
  0
ENDTAB
  0
TABLE
  2
LTYPE
  5
a8
100
AcDbSymbolTable
 70
    11
  0
LTYPE
  5
ab
100
AcDbSymbolTableRecord
100
AcDbLinetypeTableRecord
  2
BYBLOCK
 70
    64
  3
BYBLOCK
 72
    65
 73
     0
 40
0.000000
  0
LTYPE
  5
ae
100
AcDbSymbolTableRecord
100
AcDbLinetypeTableRecord
  2
BYLAYER
 70
    64
  3
BYLAYER
 72
    65
 73
     0
 40
0.000000
  0
LTYPE
  5
b1
100
AcDbSymbolTableRecord
100
AcDbLinetypeTableRecord
  2
CONTINUOUS
 70
    64
  3
実線
 72
    65
 73
     0
 40
0.000000
  0
LTYPE
  5
b4
100
AcDbSymbolTableRecord
100
AcDbLinetypeTableRecord
  2
DASHED
 70
    64
  3
__ __ __ __ __ __ __ __ __ __ __ __ __ __ __
 72
    65
 73
     2
 40
0.750000
 49
0.500000
 74
     0
 49
-0.250000
 74
     0
  0
LTYPE
  5
b7
100
AcDbSymbolTableRecord
100
AcDbLinetypeTableRecord
  2
HIDDEN
 70
    64
  3
_ _ _ _ _ _ _ _ _ _ _ _ _ _ _ _ _ _ _ _ _ _ _
 72
    65
 73
     2
 40
0.375000
 49
0.250000
 74
     0
 49
-0.125000
 74
     0
  0
LTYPE
  5
ba
100
AcDbSymbolTableRecord
100
AcDbLinetypeTableRecord
  2
CENTER
 70
    64
  3
____ _ ____ _ ____ _ ____ _ ____ _ ____ _ ____
 72
    65
 73
     4
 40
2.000000
 49
1.250000
 74
     0
 49
-0.250000
 74
     0
 49
0.250000
 74
     0
 49
-0.250000
 74
     0
  0
LTYPE
  5
bd
100
AcDbSymbolTableRecord
100
AcDbLinetypeTableRecord
  2
PHANTOM
 70
    64
  3
_____ _ _ _____ _ _ _____ _ _ _____ _ _ ____
 72
    65
 73
     6
 40
2.500000
 49
1.250000
 74
     0
 49
-0.250000
 74
     0
 49
0.250000
 74
     0
 49
-0.250000
 74
     0
 49
0.250000
 74
     0
 49
-0.250000
 74
     0
  0
LTYPE
  5
c0
100
AcDbSymbolTableRecord
100
AcDbLinetypeTableRecord
  2
DOT
 70
    64
  3
...............................................
 72
    65
 73
     2
 40
0.250000
 49
0.000000
 74
     0
 49
-0.250000
 74
     0
  0
LTYPE
  5
c3
100
AcDbSymbolTableRecord
100
AcDbLinetypeTableRecord
  2
DASHDOT
 70
    64
  3
__ . __ . __ . __ . __ . __ . __ . __ . __ . __
 72
    65
 73
     4
 40
1.000000
 49
0.500000
 74
     0
 49
-0.250000
 74
     0
 49
0.000000
 74
     0
 49
-0.250000
 74
     0
  0
LTYPE
  5
c6
100
AcDbSymbolTableRecord
100
AcDbLinetypeTableRecord
  2
BORDER
 70
    64
  3
__ __ . __ __ . __ __ . __ __ . __ __ . __ __
 72
    65
 73
     6
 40
1.750000
 49
0.500000
 74
     0
 49
-0.250000
 74
     0
 49
0.500000
 74
     0
 49
-0.250000
 74
     0
 49
0.000000
 74
     0
 49
-0.250000
 74
     0
  0
LTYPE
  5
c9
100
AcDbSymbolTableRecord
100
AcDbLinetypeTableRecord
  2
DIVIDE
 70
    64
  3
__ . . __ . . __ . . __ . . __ . . __ . . __
 72
    65
 73
     6
 40
1.250000
 49
0.500000
 74
     0
 49
-0.250000
 74
     0
 49
0.000000
 74
     0
 49
-0.250000
 74
     0
 49
0.000000
 74
     0
 49
-0.250000
 74
     0
  0
ENDTAB
  0
TABLE
  2
LAYER
  5
cc
100
AcDbSymbolTable
 70
     2
  0
LAYER
  5
cf
100
AcDbSymbolTableRecord
100
AcDbLayerTableRecord
  2
0
 70
    64
 62
     7
  6
CONTINUOUS
  0
ENDTAB
  0
TABLE
  2
STYLE
  5
d2
100
AcDbSymbolTable
 70
     2
  0
STYLE
  5
d5
100
AcDbSymbolTableRecord
100
AcDbTextStyleTableRecord
  2
STANDARD
 70
     0
 40
0.000000
 41
0.500000
 50
0.000000
 71
     0
 42
0.300000
  3
txt
  4

  0
STYLE
  5
d8
100
AcDbSymbolTableRecord
100
AcDbTextStyleTableRecord
  2
BIGFONT
 70
    64
 40
0.000000
 41
1.000000
 50
0.000000
 71
     0
 42
0.200000
  3

  4
bigfont
  0
ENDTAB
  0
TABLE
  2
VIEW
  5
db
100
AcDbSymbolTable
 70
     0
  0
ENDTAB
  0
TABLE
  2
UCS
  5
de
100
AcDbSymbolTable
 70
     0
  0
ENDTAB
  0
TABLE
  2
APPID
  5
e1
100
AcDbSymbolTable
 70
     3
  0
APPID
  5
e4
100
AcDbSymbolTableRecord
100
AcDbRegAppTableRecord
  2
ACAD
 70
     0
  0
APPID
  5
e7
100
AcDbSymbolTableRecord
100
AcDbRegAppTableRecord
  2
CONTENTTABDATA
 70
     0
  0
APPID
  5
ea
100
AcDbSymbolTableRecord
100
AcDbRegAppTableRecord
  2
CONTENTCURRENTTAB
 70
     0
  0
ENDTAB
  0
TABLE
  2
DIMSTYLE
  5
ed
100
AcDbSymbolTable
 70
     1
  0
DIMSTYLE
105
f0
100
AcDbSymbolTableRecord
100
AcDbDimStyleTableRecord
  2
STANDARD
 70
     0
  3

  4

  5

  6

  7

 40
1.000000
 41
0.180000
 42
0.062500
 43
0.380000
 44
0.180000
 45
0.000000
 46
0.000000
 47
0.000000
 48
0.000000
140
0.180000
141
0.090000
142
0.000000
143
25.400000
144
1.000000
145
0.000000
146
1.000000
147
0.090000
 71
     0
 72
     0
 73
     1
 74
     1
 75
     0
 76
     0
 77
     0
 78
     0
170
     0
171
     2
172
     0
173
     0
174
     0
175
     0
176
     0
177
     0
178
     0
270
     2
271
     4
272
     4
273
     2
274
     2
340
d5
275
     0
280
     0
281
     0
282
     0
283
     1
284
     0
285
     0
286
     0
287
     3
288
     0
  0
ENDTAB
  0
TABLE
  2
BLOCK_RECORD
  5
f3
100
AcDbSymbolTable
 70
     0
  0
BLOCK_RECORD
  5
f6
100
AcDbSymbolTableRecord
100
AcDbBlockTableRecord
  2
*MODEL_SPACE
  0
BLOCK_RECORD
  5
f9
100
AcDbSymbolTableRecord
100
AcDbBlockTableRecord
  2
*PAPER_SPACE
  0
ENDTAB
  0
ENDSEC
  0
SECTION
  2
BLOCKS
  0
BLOCK
  5
fc
100
AcDbEntity
  8
0
100
AcDbBlockBegin
  2
*MODEL_SPACE
 70
     0
 10
0.000000
 20
0.000000
 30
0.000000
  3
*MODEL_SPACE
  1
 
  0
ENDBLK
  5
ff
100
AcDbEntity
  8
0
100
AcDbBlockEnd
  0
BLOCK
  5
102
100
AcDbEntity
 67
     1
  8
0
100
AcDbBlockBegin
  2
*PAPER_SPACE
 70
     0
 10
0.000000
 20
0.000000
 30
0.000000
  3
*PAPER_SPACE
  1
 
  0
ENDBLK
  5
105
100
AcDbEntity
 67
     1
  8
0
100
AcDbBlockEnd
  0
ENDSEC
  0
SECTION
  2
ENTITIES
  0
LWPOLYLINE
  5
108
100
AcDbEntity
  8
0
100
AcDbPolyline
 90
     4
 70
     1
 43
0.200000
 10
40.875000
 20
234.270000
 10
40.875000
 20
198.295000
 10
6.275000
 20
198.295000
 10
6.275000
 20
234.270000
  0
MTEXT
  5
113
100
AcDbEntity
  8
0
100
AcDbMText
 10
46.375000
 20
191.645000
 40
2.100000
 41
11.750000
 71
     1
 72
     5
  1
\T1.1;\fＭＳ ゴシック|b0|i0|c128|p18;[単位mm]
  7
BIGFONT
  0
LINE
  5
116
100
AcDbEntity
  8
0
  6
DASHDOT
 62
     7
100
AcDbLine
 10
23.575000
 20
238.345000
 11
23.575000
 21
186.920000
  0
LINE
  5
119
100
AcDbEntity
  8
0
100
AcDbLine
 10
40.225000
 20
231.270000
 11
7.550000
 21
231.270000
  0
LINE
  5
11c
100
AcDbEntity
  8
0
100
AcDbLine
 10
23.575000
 20
238.345000
 11
23.575000
 21
241.920000
  0
LINE
  5
11f
100
AcDbEntity
  8
0
100
AcDbLine
 10
37.575000
 20
226.320000
 11
37.575000
 21
241.920000
  0
LINE
  5
122
100
AcDbEntity
  8
0
100
AcDbLine
 10
9.575000
 20
227.495000
 11
9.575000
 21
241.920000
  0
LINE
  5
125
100
AcDbEntity
  8
0
100
AcDbLine
 10
30.175000
 20
227.070000
 11
18.275000
 21
227.070000
  0
LINE
  5
128
100
AcDbEntity
  8
0
100
AcDbLine
 10
31.900000
 20
211.070000
 11
16.550000
 21
211.070000
  0
CIRCLE
  5
12b
100
AcDbEntity
  8
0
100
AcDbCircle
 10
23.575000
 20
211.070000
 40
1.600000
  0
CIRCLE
  5
12e
100
AcDbEntity
  8
0
100
AcDbCircle
 10
23.575000
 20
227.070000
 40
1.600000
  0
CIRCLE
  5
131
100
AcDbEntity
  8
0
100
AcDbCircle
 10
37.575000
 20
231.270000
 40
1.600000
  0
CIRCLE
  5
134
100
AcDbEntity
  8
0
100
AcDbCircle
 10
9.575000
 20
231.270000
 40
1.600000
  0
LINE
  5
137
100
AcDbEntity
  8
0
100
AcDbLine
 10
40.875000
 20
191.570000
 11
6.275000
 21
191.570000
  0
LWPOLYLINE
  5
13a
100
AcDbEntity
  8
0
100
AcDbPolyline
 90
     3
 70
     0
 10
39.900000
 20
191.320000
 10
40.875000
 20
191.570000
 10
39.900000
 20
191.845000
  0
LWPOLYLINE
  5
143
100
AcDbEntity
  8
0
100
AcDbPolyline
 90
     3
 70
     0
 10
7.225000
 20
191.845000
 10
6.275000
 20
191.570000
 10
7.225000
 20
191.320000
  0
LINE
  5
14c
100
AcDbEntity
  8
0
100
AcDbLine
 10
40.875000
 20
197.295000
 11
40.875000
 21
189.570000
  0
LINE
  5
14f
100
AcDbEntity
  8
0
100
AcDbLine
 10
6.275000
 20
197.295000
 11
6.275000
 21
189.570000
  0
TEXT
  5
152
100
AcDbEntity
  8
0
100
AcDbText
 10
28.200000
 20
192.045000
 40
2.475000
  1
34.6
 41
1.000000
  7
STANDARD
100
AcDbText
  0
LINE
  5
155
100
AcDbEntity
  8
0
100
AcDbLine
 10
3.000000
 20
198.295000
 11
3.000000
 21
234.270000
  0
LWPOLYLINE
  5
158
100
AcDbEntity
  8
0
100
AcDbPolyline
 90
     3
 70
     0
 10
2.725000
 20
199.270000
 10
3.000000
 20
198.295000
 10
3.250000
 20
199.270000
  0
LWPOLYLINE
  5
161
100
AcDbEntity
  8
0
100
AcDbPolyline
 90
     3
 70
     0
 10
3.250000
 20
233.320000
 10
3.000000
 20
234.270000
 10
2.725000
 20
233.320000
  0
LINE
  5
16a
100
AcDbEntity
  8
0
100
AcDbLine
 10
5.275000
 20
198.295000
 11
1.000000
 21
198.295000
  0
LINE
  5
16d
100
AcDbEntity
  8
0
100
AcDbLine
 10
5.275000
 20
234.270000
 11
1.000000
 21
234.270000
  0
TEXT
  5
170
100
AcDbEntity
  8
0
100
AcDbText
 10
2.525000
 20
215.320000
 40
2.475000
  1
36.0
 41
1.000000
 50
90.000000
  7
STANDARD
100
AcDbText
  0
LINE
  5
173
100
AcDbEntity
  8
0
100
AcDbLine
 10
9.575000
 20
238.820000
 11
23.575000
 21
238.820000
  0
LWPOLYLINE
  5
176
100
AcDbEntity
  8
0
100
AcDbPolyline
 90
     3
 70
     0
 10
10.525000
 20
239.095000
 10
9.575000
 20
238.820000
 10
10.525000
 20
238.570000
  0
LWPOLYLINE
  5
17f
100
AcDbEntity
  8
0
100
AcDbPolyline
 90
     3
 70
     0
 10
22.600000
 20
238.570000
 10
23.575000
 20
238.820000
 10
22.600000
 20
239.095000
  0
LINE
  5
188
100
AcDbEntity
  8
0
100
AcDbLine
 10
9.575000
 20
236.570000
 11
9.575000
 21
240.820000
  0
LINE
  5
18b
100
AcDbEntity
  8
0
100
AcDbLine
 10
23.575000
 20
236.570000
 11
23.575000
 21
240.820000
  0
TEXT
  5
18e
100
AcDbEntity
  8
0
100
AcDbText
 10
13.525000
 20
239.320000
 40
2.475000
  1
14.0
 41
1.000000
  7
STANDARD
100
AcDbText
  0
LINE
  5
191
100
AcDbEntity
  8
0
100
AcDbLine
 10
23.575000
 20
238.820000
 11
37.575000
 21
238.820000
  0
LWPOLYLINE
  5
194
100
AcDbEntity
  8
0
100
AcDbPolyline
 90
     3
 70
     0
 10
24.525000
 20
239.095000
 10
23.575000
 20
238.820000
 10
24.525000
 20
238.570000
  0
LWPOLYLINE
  5
19d
100
AcDbEntity
  8
0
100
AcDbPolyline
 90
     3
 70
     0
 10
36.600000
 20
238.570000
 10
37.575000
 20
238.820000
 10
36.600000
 20
239.095000
  0
LINE
  5
1a6
100
AcDbEntity
  8
0
100
AcDbLine
 10
23.575000
 20
236.570000
 11
23.575000
 21
240.820000
  0
LINE
  5
1a9
100
AcDbEntity
  8
0
100
AcDbLine
 10
37.575000
 20
236.570000
 11
37.575000
 21
240.820000
  0
TEXT
  5
1ac
100
AcDbEntity
  8
0
100
AcDbText
 10
27.925000
 20
239.320000
 40
2.475000
  1
14.0
 41
1.000000
  7
STANDARD
100
AcDbText
  0
LINE
  5
1af
100
AcDbEntity
  8
0
100
AcDbLine
 10
45.125000
 20
234.270000
 11
45.125000
 21
231.270000
  0
LINE
  5
1b2
100
AcDbEntity
  8
0
100
AcDbLine
 10
45.125000
 20
239.795000
 11
45.125000
 21
234.270000
  0
LINE
  5
1b5
100
AcDbEntity
  8
0
100
AcDbLine
 10
45.125000
 20
227.270000
 11
45.125000
 21
231.270000
  0
LWPOLYLINE
  5
1b8
100
AcDbEntity
  8
0
100
AcDbPolyline
 90
     3
 70
     0
 10
44.850000
 20
235.245000
 10
45.125000
 20
234.270000
 10
45.375000
 20
235.245000
  0
LWPOLYLINE
  5
1c1
100
AcDbEntity
  8
0
100
AcDbPolyline
 90
     3
 70
     0
 10
45.375000
 20
230.320000
 10
45.125000
 20
231.270000
 10
44.850000
 20
230.320000
  0
LINE
  5
1ca
100
AcDbEntity
  8
0
100
AcDbLine
 10
39.400000
 20
234.270000
 11
47.125000
 21
234.270000
  0
LINE
  5
1cd
100
AcDbEntity
  8
0
100
AcDbLine
 10
39.400000
 20
231.270000
 11
47.125000
 21
231.270000
  0
TEXT
  5
1d0
100
AcDbEntity
  8
0
100
AcDbText
 10
44.650000
 20
235.670000
 40
2.475000
  1
3.0
 41
1.000000
 50
90.000000
  7
STANDARD
100
AcDbText
  0
LINE
  5
1d3
100
AcDbEntity
  8
0
100
AcDbLine
 10
47.550000
 20
231.270000
 11
47.550000
 21
227.070000
  0
LINE
  5
1d6
100
AcDbEntity
  8
0
100
AcDbLine
 10
47.550000
 20
235.270000
 11
47.550000
 21
231.270000
  0
LINE
  5
1d9
100
AcDbEntity
  8
0
100
AcDbLine
 10
47.550000
 20
221.745000
 11
47.550000
 21
227.070000
  0
LWPOLYLINE
  5
1dc
100
AcDbEntity
  8
0
100
AcDbPolyline
 90
     3
 70
     0
 10
47.275000
 20
232.245000
 10
47.550000
 20
231.270000
 10
47.800000
 20
232.245000
  0
LWPOLYLINE
  5
1e5
100
AcDbEntity
  8
0
100
AcDbPolyline
 90
     3
 70
     0
 10
47.800000
 20
226.120000
 10
47.550000
 20
227.070000
 10
47.275000
 20
226.120000
  0
LINE
  5
1ee
100
AcDbEntity
  8
0
100
AcDbLine
 10
41.825000
 20
231.270000
 11
49.550000
 21
231.270000
  0
LINE
  5
1f1
100
AcDbEntity
  8
0
100
AcDbLine
 10
41.825000
 20
227.070000
 11
49.550000
 21
227.070000
  0
TEXT
  5
1f4
100
AcDbEntity
  8
0
100
AcDbText
 10
47.075000
 20
221.720000
 40
2.475000
  1
4.2
 41
1.000000
 50
90.000000
  7
STANDARD
100
AcDbText
  0
LINE
  5
1f7
100
AcDbEntity
  8
0
100
AcDbLine
 10
34.575000
 20
227.070000
 11
34.575000
 21
211.070000
  0
LWPOLYLINE
  5
1fa
100
AcDbEntity
  8
0
100
AcDbPolyline
 90
     3
 70
     0
 10
34.825000
 20
226.120000
 10
34.575000
 20
227.070000
 10
34.300000
 20
226.120000
  0
LWPOLYLINE
  5
203
100
AcDbEntity
  8
0
100
AcDbPolyline
 90
     3
 70
     0
 10
34.300000
 20
212.045000
 10
34.575000
 20
211.070000
 10
34.825000
 20
212.045000
  0
LINE
  5
20c
100
AcDbEntity
  8
0
100
AcDbLine
 10
28.800000
 20
227.070000
 11
36.575000
 21
227.070000
  0
LINE
  5
20f
100
AcDbEntity
  8
0
100
AcDbLine
 10
28.800000
 20
211.070000
 11
36.575000
 21
211.070000
  0
TEXT
  5
212
100
AcDbEntity
  8
0
100
AcDbText
 10
34.100000
 20
216.895000
 40
2.475000
  1
16.0
 41
1.000000
 50
90.000000
  7
STANDARD
100
AcDbText
  0
LINE
  5
215
100
AcDbEntity
  8
0
100
AcDbLine
 10
22.125000
 20
211.695000
 11
25.025000
 21
210.445000
  0
LINE
  5
218
100
AcDbEntity
  8
0
100
AcDbLine
 10
11.975000
 20
216.045000
 11
22.125000
 21
211.695000
  0
LINE
  5
21b
100
AcDbEntity
  8
0
100
AcDbLine
 10
28.700000
 20
208.895000
 11
25.025000
 21
210.445000
  0
LWPOLYLINE
  5
21e
100
AcDbEntity
  8
0
100
AcDbPolyline
 90
     3
 70
     0
 10
21.125000
 20
211.845000
 10
22.125000
 20
211.695000
 10
21.325000
 20
212.320000
  0
LWPOLYLINE
  5
227
100
AcDbEntity
  8
0
100
AcDbPolyline
 90
     3
 70
     0
 10
26.000000
 20
210.320000
 10
25.025000
 20
210.445000
 10
25.800000
 20
209.845000
  0
TEXT
  5
230
100
AcDbEntity
  8
0
100
AcDbText
 10
10.951391
 20
217.401835
 40
2.475000
  1
4- 
 41
1.000000
 50
337.000000
  7
STANDARD
100
AcDbText
  0
TEXT
  5
233
100
AcDbEntity
  8
0
100
AcDbText
 10
14.748473
 20
215.790069
 40
2.475000
  1
φ
 41
1.000000
 50
337.000000
  7
BIGFONT
100
AcDbText
  0
TEXT
  5
236
100
AcDbEntity
  8
0
100
AcDbText
 10
17.279861
 20
214.715559
 40
2.475000
  1
3.2
 41
1.000000
 50
337.000000
  7
STANDARD
100
AcDbText
  0
ENDSEC
  0
SECTION
  2
OBJECTS
  0
DICTIONARY
  5
241
100
AcDbDictionary
  3
ACAD_GROUP
350
242
  3
ACAD_MLINESTYLE
350
243
  3
CONTENTDICTIONARY
350
244
  0
DICTIONARY
  5
242
102
{ACAD_REACTORS
330
241
102
}
100
AcDbDictionary
  0
DICTIONARY
  5
243
102
{ACAD_REACTORS
330
241
102
}
100
AcDbDictionary
  3
STANDARD
350
245
  0
DICTIONARY
  5
244
102
{ACAD_REACTORS
330
241
102
}
100
AcDbDictionary
  0
MLINESTYLE
  5
245
102
{ACAD_REACTORS
330
243
102
}
100
AcDbMlineStyle
  2
STANDARD
 70
     0
  3
 
 62
   256
 51
90.000000
 52
90.000000
 71
     2
 49
0.500000
 62
   256
  6
BYLAYER
 49
-0.500000
 62
   256
  6
BYLAYER
  0
ENDSEC
  0
EOF
