  0
SECTION
  2
HEADER
  9
$ACADVER
  1
AC1014
  9
$ACADMAINTVER
 70
     0
  9
$DWGCODEPAGE
  3
ANSI_932
  9
$INSBASE
 10
0.000000
 20
0.000000
 30
0.000000
  9
$EXTMIN
 10
0.000000
 20
0.000000
 30
0.000000
  9
$EXTMAX
 10
172.000000
 20
238.000000
 30
0.000000
  9
$LIMMIN
 10
0.000000
 20
0.000000
  9
$LIMMAX
 10
172.000000
 20
238.000000
  9
$ORTHOMODE
 70
     0
  9
$REGENMODE
 70
     1
  9
$FILLMODE
 70
     1
  9
$QTEXTMODE
 70
     0
  9
$MIRRTEXT
 70
     1
  9
$DRAGMODE
 70
     2
  9
$LTSCALE
 40
1.000000
  9
$OSMODE
 70
     0
  9
$ATTMODE
 70
     1
  9
$TEXTSIZE
 40
2.500000
  9
$TRACEWID
 40
1.000000
  9
$TEXTSTYLE
  7
BIGFONT
  9
$CLAYER
  8
0
  9
$CELTYPE
  6
BYLAYER
  9
$CECOLOR
 62
   256
  9
$CELTSCALE
 40
1.000000
  9
$DELOBJ
 70
     1
  9
$DISPSILH
 70
     0
  9
$DIMSCALE
 40
1.000000
  9
$DIMASZ
 40
2.500000
  9
$DIMEXO
 40
0.625000
  9
$DIMDLI
 40
3.750000
  9
$DIMRND
 40
0.000000
  9
$DIMDLE
 40
0.000000
  9
$DIMEXE
 40
1.250000
  9
$DIMTP
 40
0.000000
  9
$DIMTM
 40
0.000000
  9
$DIMTXT
 40
2.500000
  9
$DIMCEN
 40
2.500000
  9
$DIMTSZ
 40
0.000000
  9
$DIMTOL
 70
     0
  9
$DIMLIM
 70
     0
  9
$DIMTIH
 70
     0
  9
$DIMTOH
 70
     0
  9
$DIMSE1
 70
     0
  9
$DIMSE2
 70
     0
  9
$DIMTAD
 70
     1
  9
$DIMZIN
 70
     8
  9
$DIMBLK
  1

  9
$DIMASO
 70
     1
  9
$DIMSHO
 70
     1
  9
$DIMPOST
  1

  9
$DIMAPOST
  1

  9
$DIMALT
 70
     0
  9
$DIMALTD
 70
     4
  9
$DIMALTF
 40
0.039400
  9
$DIMLFAC
 40
1.000000
  9
$DIMTOFL
 70
     1
  9
$DIMTVP
 40
0.000000
  9
$DIMTIX
 70
     0
  9
$DIMSOXD
 70
     0
  9
$DIMSAH
 70
     0
  9
$DIMBLK1
  1

  9
$DIMBLK2
  1

  9
$DIMSTYLE
  2
STANDARD
  9
$DIMCLRD
 70
     0
  9
$DIMCLRE
 70
     0
  9
$DIMCLRT
 70
     0
  9
$DIMTFAC
 40
1.000000
  9
$DIMGAP
 40
0.625000
  9
$DIMJUST
 70
     0
  9
$DIMSD1
 70
     0
  9
$DIMSD2
 70
     0
  9
$DIMTOLJ
 70
     1
  9
$DIMTZIN
 70
     0
  9
$DIMALTZ
 70
     0
  9
$DIMALTTZ
 70
     0
  9
$DIMFIT
 70
     3
  9
$DIMUPT
 70
     0
  9
$DIMUNIT
 70
     8
  9
$DIMDEC
 70
     4
  9
$DIMTDEC
 70
     4
  9
$DIMALTU
 70
     8
  9
$DIMALTTD
 70
     4
  9
$DIMTXSTY
  7
STANDARD
  9
$DIMAUNIT
 70
     0
  9
$LUNITS
 70
     2
  9
$LUPREC
 70
     4
  9
$AXISMODE
 70
     0
  9
$SKETCHINC
 40
1.000000
  9
$FILLETRAD
 40
10.000000
  9
$AUNITS
 70
     0
  9
$AUPREC
 70
     0
  9
$MENU
  1
acad
  9
$ELEVATION
 40
0.000000
  9
$PELEVATION
 40
0.000000
  9
$THICKNESS
 40
0.000000
  9
$LIMCHECK
 70
     0
  9
$BLIPMODE
 70
     0
  9
$CHAMFERA
 40
10.000000
  9
$CHAMFERB
 40
10.000000
  9
$CHAMFERC
 40
20.000000
  9
$CHAMFERD
 40
0.000000
  9
$SKPOLY
 70
     0
  9
$TDCREATE
 40
2447851.677998
  9
$TDUPDATE
 40
2447851.677998
  9
$TDINDWG
 40
0.000000
  9
$TDUSRTIMER
 40
0.000000
  9
$USRTIMER
 70
     1
  9
$ANGBASE
 50
0.000000
  9
$ANGDIR
 70
     0
  9
$PDMODE
 70
     0
  9
$PDSIZE
 40
0.000000
  9
$PLINEWID
 40
0.000000
  9
$COORDS
 70
     1
  9
$SPLFRAME
 70
     0
  9
$SPLINETYPE
 70
     6
  9
$SPLINESEGS
 70
     8
  9
$ATTDIA
 70
     0
  9
$ATTREQ
 70
     1
  9
$HANDLING
 70
     1
  9
$HANDSEED
  5
FFFFFFF
  9
$SURFTAB1
 70
     6
  9
$SURFTAB2
 70
     6
  9
$SURFTYPE
 70
     6
  9
$SURFU
 70
     6
  9
$SURFV
 70
     6
  9
$UCSNAME
  2

  9
$UCSORG
 10
0.000000
 20
0.000000
 30
0.000000
  9
$UCSXDIR
 10
1.000000
 20
0.000000
 30
0.000000
  9
$UCSYDIR
 10
0.000000
 20
1.000000
 30
0.000000
  9
$PUCSNAME
  2

  9
$PUCSORG
 10
0.000000
 20
0.000000
 30
0.000000
  9
$PUCSXDIR
 10
1.000000
 20
0.000000
 30
0.000000
  9
$PUCSYDIR
 10
0.000000
 20
1.000000
 30
0.000000
  9
$USERI1
 70
     0
  9
$USERI2
 70
     0
  9
$USERI3
 70
     0
  9
$USERI4
 70
     0
  9
$USERI5
 70
     0
  9
$USERR1
 40
0.000000
  9
$USERR2
 40
0.000000
  9
$USERR3
 40
0.000000
  9
$USERR4
 40
0.000000
  9
$USERR5
 40
0.000000
  9
$WORLDVIEW
 70
     1
  9
$SHADEDGE
 70
     3
  9
$SHADEDIF
 70
    70
  9
$TILEMODE
 70
     1
  9
$MAXACTVP
 70
    48
  9
$PINSBASE
 10
0.000000
 20
0.000000
 30
0.000000
  9
$PLIMCHECK
 70
     0
  9
$PEXTMIN
 10
100000000000000000000.000000
 20
100000000000000000000.000000
 30
100000000000000000000.000000
  9
$PEXTMAX
 10
-100000000000000000000.000000
 20
-100000000000000000000.000000
 30
-100000000000000000000.000000
  9
$PLIMMIN
 10
0.000000
 20
0.000000
  9
$PLIMMAX
 10
172.000000
 20
238.000000
  9
$UNITMODE
 70
     0
  9
$VISRETAIN
 70
     1
  9
$PLINEGEN
 70
     0
  9
$PSLTSCALE
 70
     1
  9
$TREEDEPTH
 70
  3020
  9
$PICKSTYLE
 70
     1
  9
$CMLSTYLE
  2
STANDARD
  9
$CMLJUST
 70
     0
  9
$CMLSCALE
 40
20.000000
  9
$PROXYGRAPHICS
 70
     1
  9
$MEASUREMENT
 70
     1
  0
ENDSEC
  0
SECTION
  2
TABLES
  0
TABLE
  2
VPORT
  5
a2
100
AcDbSymbolTable
 70
     2
  0
VPORT
  5
a5
100
AcDbSymbolTableRecord
100
AcDbViewportTableRecord
  2
*ACTIVE
 70
     0
 10
0.000000
 20
0.000000
 11
1.000000
 21
1.000000
 12
300.000000
 22
200.000000
 13
0.000000
 23
0.000000
 14
10.000000
 24
10.000000
 15
10.000000
 25
10.000000
 16
0.000000
 26
0.000000
 36
1.000000
 17
0.000000
 27
0.000000
 37
0.000000
 40
300.000000
 41
1.600432
 42
50.000000
 43
0.000000
 44
0.000000
 50
0.000000
 51
0.000000
 71
     0
 72
   100
 73
     1
 74
     1
 75
     0
 76
     0
 77
     0
 78
     0
  0
ENDTAB
  0
TABLE
  2
LTYPE
  5
a8
100
AcDbSymbolTable
 70
    11
  0
LTYPE
  5
ab
100
AcDbSymbolTableRecord
100
AcDbLinetypeTableRecord
  2
BYBLOCK
 70
    64
  3
BYBLOCK
 72
    65
 73
     0
 40
0.000000
  0
LTYPE
  5
ae
100
AcDbSymbolTableRecord
100
AcDbLinetypeTableRecord
  2
BYLAYER
 70
    64
  3
BYLAYER
 72
    65
 73
     0
 40
0.000000
  0
LTYPE
  5
b1
100
AcDbSymbolTableRecord
100
AcDbLinetypeTableRecord
  2
CONTINUOUS
 70
    64
  3
実線
 72
    65
 73
     0
 40
0.000000
  0
LTYPE
  5
b4
100
AcDbSymbolTableRecord
100
AcDbLinetypeTableRecord
  2
DASHED
 70
    64
  3
__ __ __ __ __ __ __ __ __ __ __ __ __ __ __
 72
    65
 73
     2
 40
0.750000
 49
0.500000
 74
     0
 49
-0.250000
 74
     0
  0
LTYPE
  5
b7
100
AcDbSymbolTableRecord
100
AcDbLinetypeTableRecord
  2
HIDDEN
 70
    64
  3
_ _ _ _ _ _ _ _ _ _ _ _ _ _ _ _ _ _ _ _ _ _ _
 72
    65
 73
     2
 40
0.375000
 49
0.250000
 74
     0
 49
-0.125000
 74
     0
  0
LTYPE
  5
ba
100
AcDbSymbolTableRecord
100
AcDbLinetypeTableRecord
  2
CENTER
 70
    64
  3
____ _ ____ _ ____ _ ____ _ ____ _ ____ _ ____
 72
    65
 73
     4
 40
2.000000
 49
1.250000
 74
     0
 49
-0.250000
 74
     0
 49
0.250000
 74
     0
 49
-0.250000
 74
     0
  0
LTYPE
  5
bd
100
AcDbSymbolTableRecord
100
AcDbLinetypeTableRecord
  2
PHANTOM
 70
    64
  3
_____ _ _ _____ _ _ _____ _ _ _____ _ _ ____
 72
    65
 73
     6
 40
2.500000
 49
1.250000
 74
     0
 49
-0.250000
 74
     0
 49
0.250000
 74
     0
 49
-0.250000
 74
     0
 49
0.250000
 74
     0
 49
-0.250000
 74
     0
  0
LTYPE
  5
c0
100
AcDbSymbolTableRecord
100
AcDbLinetypeTableRecord
  2
DOT
 70
    64
  3
...............................................
 72
    65
 73
     2
 40
0.250000
 49
0.000000
 74
     0
 49
-0.250000
 74
     0
  0
LTYPE
  5
c3
100
AcDbSymbolTableRecord
100
AcDbLinetypeTableRecord
  2
DASHDOT
 70
    64
  3
__ . __ . __ . __ . __ . __ . __ . __ . __ . __
 72
    65
 73
     4
 40
1.000000
 49
0.500000
 74
     0
 49
-0.250000
 74
     0
 49
0.000000
 74
     0
 49
-0.250000
 74
     0
  0
LTYPE
  5
c6
100
AcDbSymbolTableRecord
100
AcDbLinetypeTableRecord
  2
BORDER
 70
    64
  3
__ __ . __ __ . __ __ . __ __ . __ __ . __ __
 72
    65
 73
     6
 40
1.750000
 49
0.500000
 74
     0
 49
-0.250000
 74
     0
 49
0.500000
 74
     0
 49
-0.250000
 74
     0
 49
0.000000
 74
     0
 49
-0.250000
 74
     0
  0
LTYPE
  5
c9
100
AcDbSymbolTableRecord
100
AcDbLinetypeTableRecord
  2
DIVIDE
 70
    64
  3
__ . . __ . . __ . . __ . . __ . . __ . . __
 72
    65
 73
     6
 40
1.250000
 49
0.500000
 74
     0
 49
-0.250000
 74
     0
 49
0.000000
 74
     0
 49
-0.250000
 74
     0
 49
0.000000
 74
     0
 49
-0.250000
 74
     0
  0
ENDTAB
  0
TABLE
  2
LAYER
  5
cc
100
AcDbSymbolTable
 70
     2
  0
LAYER
  5
cf
100
AcDbSymbolTableRecord
100
AcDbLayerTableRecord
  2
0
 70
    64
 62
     7
  6
CONTINUOUS
  0
ENDTAB
  0
TABLE
  2
STYLE
  5
d2
100
AcDbSymbolTable
 70
     2
  0
STYLE
  5
d5
100
AcDbSymbolTableRecord
100
AcDbTextStyleTableRecord
  2
STANDARD
 70
     0
 40
0.000000
 41
0.500000
 50
0.000000
 71
     0
 42
0.300000
  3
txt
  4

  0
STYLE
  5
d8
100
AcDbSymbolTableRecord
100
AcDbTextStyleTableRecord
  2
BIGFONT
 70
    64
 40
0.000000
 41
1.000000
 50
0.000000
 71
     0
 42
0.200000
  3

  4
bigfont
  0
ENDTAB
  0
TABLE
  2
VIEW
  5
db
100
AcDbSymbolTable
 70
     0
  0
ENDTAB
  0
TABLE
  2
UCS
  5
de
100
AcDbSymbolTable
 70
     0
  0
ENDTAB
  0
TABLE
  2
APPID
  5
e1
100
AcDbSymbolTable
 70
     3
  0
APPID
  5
e4
100
AcDbSymbolTableRecord
100
AcDbRegAppTableRecord
  2
ACAD
 70
     0
  0
APPID
  5
e7
100
AcDbSymbolTableRecord
100
AcDbRegAppTableRecord
  2
CONTENTTABDATA
 70
     0
  0
APPID
  5
ea
100
AcDbSymbolTableRecord
100
AcDbRegAppTableRecord
  2
CONTENTCURRENTTAB
 70
     0
  0
ENDTAB
  0
TABLE
  2
DIMSTYLE
  5
ed
100
AcDbSymbolTable
 70
     1
  0
DIMSTYLE
105
f0
100
AcDbSymbolTableRecord
100
AcDbDimStyleTableRecord
  2
STANDARD
 70
     0
  3

  4

  5

  6

  7

 40
1.000000
 41
0.180000
 42
0.062500
 43
0.380000
 44
0.180000
 45
0.000000
 46
0.000000
 47
0.000000
 48
0.000000
140
0.180000
141
0.090000
142
0.000000
143
25.400000
144
1.000000
145
0.000000
146
1.000000
147
0.090000
 71
     0
 72
     0
 73
     1
 74
     1
 75
     0
 76
     0
 77
     0
 78
     0
170
     0
171
     2
172
     0
173
     0
174
     0
175
     0
176
     0
177
     0
178
     0
270
     2
271
     4
272
     4
273
     2
274
     2
340
d5
275
     0
280
     0
281
     0
282
     0
283
     1
284
     0
285
     0
286
     0
287
     3
288
     0
  0
ENDTAB
  0
TABLE
  2
BLOCK_RECORD
  5
f3
100
AcDbSymbolTable
 70
     0
  0
BLOCK_RECORD
  5
f6
100
AcDbSymbolTableRecord
100
AcDbBlockTableRecord
  2
*MODEL_SPACE
  0
BLOCK_RECORD
  5
f9
100
AcDbSymbolTableRecord
100
AcDbBlockTableRecord
  2
*PAPER_SPACE
  0
ENDTAB
  0
ENDSEC
  0
SECTION
  2
BLOCKS
  0
BLOCK
  5
fc
100
AcDbEntity
  8
0
100
AcDbBlockBegin
  2
*MODEL_SPACE
 70
     0
 10
0.000000
 20
0.000000
 30
0.000000
  3
*MODEL_SPACE
  1
 
  0
ENDBLK
  5
ff
100
AcDbEntity
  8
0
100
AcDbBlockEnd
  0
BLOCK
  5
102
100
AcDbEntity
 67
     1
  8
0
100
AcDbBlockBegin
  2
*PAPER_SPACE
 70
     0
 10
0.000000
 20
0.000000
 30
0.000000
  3
*PAPER_SPACE
  1
 
  0
ENDBLK
  5
105
100
AcDbEntity
 67
     1
  8
0
100
AcDbBlockEnd
  0
ENDSEC
  0
SECTION
  2
ENTITIES
  0
LWPOLYLINE
  5
108
100
AcDbEntity
  8
0
100
AcDbPolyline
 90
     4
 70
     1
 43
0.200000
 10
19.225000
 20
227.975000
 10
70.025000
 20
227.975000
 10
70.025000
 20
138.775000
 10
19.225000
 20
138.775000
  0
LINE
  5
113
100
AcDbEntity
  8
0
100
AcDbLine
 10
21.075000
 20
143.875000
 11
68.825000
 21
143.875000
  0
LINE
  5
116
100
AcDbEntity
  8
0
100
AcDbLine
 10
19.225000
 20
154.775000
 11
70.025000
 21
154.775000
  0
LINE
  5
119
100
AcDbEntity
  8
0
100
AcDbLine
 10
19.225000
 20
138.775000
 11
70.025000
 21
138.775000
  0
LINE
  5
11c
100
AcDbEntity
  8
0
100
AcDbLine
 10
19.225000
 20
184.275000
 11
70.025000
 21
184.275000
  0
LINE
  5
11f
100
AcDbEntity
  8
0
100
AcDbLine
 10
19.225000
 20
195.775000
 11
70.025000
 21
195.775000
  0
LINE
  5
122
100
AcDbEntity
  8
0
100
AcDbLine
 10
19.225000
 20
213.775000
 11
70.025000
 21
213.775000
  0
LINE
  5
125
100
AcDbEntity
  8
0
100
AcDbLine
 10
19.225000
 20
225.275000
 11
70.025000
 21
225.275000
  0
LINE
  5
128
100
AcDbEntity
  8
0
100
AcDbLine
 10
19.225000
 20
227.975000
 11
19.225000
 21
138.775000
  0
LINE
  5
12b
100
AcDbEntity
  8
0
100
AcDbLine
 10
21.925000
 20
226.875000
 11
21.925000
 21
223.750000
  0
LINE
  5
12e
100
AcDbEntity
  8
0
100
AcDbLine
 10
21.925000
 20
187.175000
 11
21.925000
 21
182.000000
  0
LINE
  5
131
100
AcDbEntity
  8
0
100
AcDbLine
 10
21.625000
 20
215.475000
 11
21.625000
 21
192.075000
  0
LINE
  5
134
100
AcDbEntity
  8
0
100
AcDbLine
 10
21.625000
 20
156.675000
 11
21.625000
 21
149.325000
  0
CIRCLE
  5
137
100
AcDbEntity
  8
0
100
AcDbCircle
 10
21.625000
 20
213.775000
 40
1.100000
  0
CIRCLE
  5
13a
100
AcDbEntity
  8
0
100
AcDbCircle
 10
21.925000
 20
225.275000
 40
1.100000
  0
LINE
  5
13d
100
AcDbEntity
  8
0
100
AcDbLine
 10
20.975000
 20
225.800000
 11
22.875000
 21
224.750000
  0
LINE
  5
140
100
AcDbEntity
  8
0
100
AcDbLine
 10
10.200000
 20
231.725000
 11
20.975000
 21
225.800000
  0
LINE
  5
143
100
AcDbEntity
  8
0
100
AcDbLine
 10
26.375000
 20
222.850000
 11
22.875000
 21
224.750000
  0
LWPOLYLINE
  5
146
100
AcDbEntity
  8
0
100
AcDbPolyline
 90
     3
 70
     0
 10
20.000000
 20
226.050000
 10
20.975000
 20
225.800000
 10
20.250000
 20
226.500000
  0
LWPOLYLINE
  5
14f
100
AcDbEntity
  8
0
100
AcDbPolyline
 90
     3
 70
     0
 10
23.825000
 20
224.525000
 10
22.875000
 20
224.750000
 10
23.600000
 20
224.075000
  0
TEXT
  5
158
100
AcDbEntity
  8
0
100
AcDbText
 10
4.495649
 20
235.209436
 40
3.175000
  1
10-
 41
1.000000
 50
332.000000
  7
STANDARD
100
AcDbText
  0
TEXT
  5
15b
100
AcDbEntity
  8
0
100
AcDbText
 10
9.153198
 20
232.732973
 40
3.175000
  1
φ
 41
1.000000
 50
332.000000
  7
BIGFONT
100
AcDbText
  0
TEXT
  5
15e
100
AcDbEntity
  8
0
100
AcDbText
 10
12.265588
 20
231.078086
 40
3.175000
  1
2.2
 41
1.000000
 50
332.000000
  7
STANDARD
100
AcDbText
  0
LINE
  5
161
100
AcDbEntity
  8
0
100
AcDbLine
 10
19.225000
 20
186.450000
 11
21.925000
 21
186.450000
  0
LINE
  5
164
100
AcDbEntity
  8
0
100
AcDbLine
 10
12.350000
 20
186.450000
 11
19.225000
 21
186.450000
  0
LINE
  5
167
100
AcDbEntity
  8
0
100
AcDbLine
 10
25.925000
 20
186.450000
 11
21.925000
 21
186.450000
  0
LWPOLYLINE
  5
16a
100
AcDbEntity
  8
0
100
AcDbPolyline
 90
     3
 70
     0
 10
18.250000
 20
186.200000
 10
19.225000
 20
186.450000
 10
18.250000
 20
186.725000
  0
LWPOLYLINE
  5
173
100
AcDbEntity
  8
0
100
AcDbPolyline
 90
     3
 70
     0
 10
22.875000
 20
186.725000
 10
21.925000
 20
186.450000
 10
22.875000
 20
186.200000
  0
LINE
  5
17c
100
AcDbEntity
  8
0
100
AcDbLine
 10
21.925000
 20
192.550000
 11
21.925000
 21
184.450000
  0
LINE
  5
17f
100
AcDbEntity
  8
0
100
AcDbLine
 10
19.225000
 20
192.550000
 11
19.225000
 21
184.450000
  0
TEXT
  5
182
100
AcDbEntity
  8
0
100
AcDbText
 10
12.350000
 20
186.950000
 40
3.175000
  1
2.7
 41
1.000000
  7
STANDARD
100
AcDbText
  0
LINE
  5
185
100
AcDbEntity
  8
0
100
AcDbLine
 10
19.225000
 20
230.900000
 11
70.025000
 21
230.900000
  0
LWPOLYLINE
  5
188
100
AcDbEntity
  8
0
100
AcDbPolyline
 90
     3
 70
     0
 10
20.175000
 20
231.175000
 10
19.225000
 20
230.900000
 10
20.175000
 20
230.650000
  0
LWPOLYLINE
  5
191
100
AcDbEntity
  8
0
100
AcDbPolyline
 90
     3
 70
     0
 10
69.050000
 20
230.650000
 10
70.025000
 20
230.900000
 10
69.050000
 20
231.175000
  0
LINE
  5
19a
100
AcDbEntity
  8
0
100
AcDbLine
 10
19.225000
 20
228.975000
 11
19.225000
 21
232.900000
  0
LINE
  5
19d
100
AcDbEntity
  8
0
100
AcDbLine
 10
70.025000
 20
228.975000
 11
70.025000
 21
232.900000
  0
TEXT
  5
1a0
100
AcDbEntity
  8
0
100
AcDbText
 10
40.450000
 20
231.375000
 40
3.175000
  1
50.8
 41
1.000000
  7
STANDARD
100
AcDbText
  0
LINE
  5
1a3
100
AcDbEntity
  8
0
100
AcDbLine
 10
21.925000
 20
223.950000
 11
21.925000
 21
187.175000
  0
LINE
  5
1a6
100
AcDbEntity
  8
0
100
AcDbLine
 10
19.225000
 20
208.650000
 11
21.625000
 21
208.650000
  0
LINE
  5
1a9
100
AcDbEntity
  8
0
100
AcDbLine
 10
12.450000
 20
208.650000
 11
19.225000
 21
208.650000
  0
LINE
  5
1ac
100
AcDbEntity
  8
0
100
AcDbLine
 10
25.625000
 20
208.650000
 11
21.625000
 21
208.650000
  0
LWPOLYLINE
  5
1af
100
AcDbEntity
  8
0
100
AcDbPolyline
 90
     3
 70
     0
 10
18.250000
 20
208.400000
 10
19.225000
 20
208.650000
 10
18.250000
 20
208.925000
  0
LWPOLYLINE
  5
1b8
100
AcDbEntity
  8
0
100
AcDbPolyline
 90
     3
 70
     0
 10
22.575000
 20
208.925000
 10
21.625000
 20
208.650000
 10
22.575000
 20
208.400000
  0
LINE
  5
1c1
100
AcDbEntity
  8
0
100
AcDbLine
 10
21.625000
 20
206.750000
 11
21.625000
 21
210.650000
  0
LINE
  5
1c4
100
AcDbEntity
  8
0
100
AcDbLine
 10
19.225000
 20
206.750000
 11
19.225000
 21
210.650000
  0
TEXT
  5
1c7
100
AcDbEntity
  8
0
100
AcDbText
 10
12.450000
 20
209.150000
 40
3.175000
  1
2.4
 41
1.000000
  7
STANDARD
100
AcDbText
  0
LINE
  5
1ca
100
AcDbEntity
  8
0
100
AcDbLine
 10
10.200000
 20
231.725000
 11
3.000000
 21
235.650000
  0
LINE
  5
1cd
100
AcDbEntity
  8
0
100
AcDbLine
 10
24.325000
 20
226.675000
 11
24.325000
 21
138.775000
  0
LINE
  5
1d0
100
AcDbEntity
  8
0
100
AcDbLine
 10
20.550000
 20
219.775000
 11
70.025000
 21
219.775000
  0
CIRCLE
  5
1d3
100
AcDbEntity
  8
0
100
AcDbCircle
 10
24.325000
 20
219.775000
 40
1.600000
  0
CIRCLE
  5
1d6
100
AcDbEntity
  8
0
100
AcDbCircle
 10
21.625000
 20
195.775000
 40
1.100000
  0
ELLIPSE
  5
1d9
100
AcDbEntity
  8
0
100
AcDbEllipse
 10
21.925000
 20
184.275000
 30
0.000000
 11
0.000000000000000
 21
1.125000
 31
0.000000
210
0.000000
220
0.000000
230
1.000000
 40
0.977778
 41
0.000000
 42
6.283185
  0
MTEXT
  5
1dc
100
AcDbEntity
  8
0
100
AcDbMText
 10
20.125000
 20
224.350000
 40
2.475000
 41
2.475000
 71
     1
 72
     5
  1
\T1.1;\fＭＳ ゴシック|b0|i0|c128|p18;B
  7
BIGFONT
  0
MTEXT
  5
1df
100
AcDbEntity
  8
0
100
AcDbMText
 10
19.775000
 20
183.125000
 40
2.475000
 41
2.475000
 71
     1
 72
     5
  1
\T1.1;\fＭＳ ゴシック|b0|i0|c128|p18;B
  7
BIGFONT
  0
CIRCLE
  5
1e2
100
AcDbEntity
  8
0
100
AcDbCircle
 10
24.325000
 20
143.875000
 40
1.600000
  0
CIRCLE
  5
1e5
100
AcDbEntity
  8
0
100
AcDbCircle
 10
21.625000
 20
154.775000
 40
1.100000
  0
LINE
  5
1e8
100
AcDbEntity
  8
0
100
AcDbLine
 10
19.225000
 20
133.475000
 11
24.325000
 21
133.475000
  0
LINE
  5
1eb
100
AcDbEntity
  8
0
100
AcDbLine
 10
12.625000
 20
133.475000
 11
19.225000
 21
133.475000
  0
LINE
  5
1ee
100
AcDbEntity
  8
0
100
AcDbLine
 10
28.325000
 20
133.475000
 11
24.325000
 21
133.475000
  0
LWPOLYLINE
  5
1f1
100
AcDbEntity
  8
0
100
AcDbPolyline
 90
     3
 70
     0
 10
18.250000
 20
133.225000
 10
19.225000
 20
133.475000
 10
18.250000
 20
133.750000
  0
LWPOLYLINE
  5
1fa
100
AcDbEntity
  8
0
100
AcDbPolyline
 90
     3
 70
     0
 10
25.275000
 20
133.750000
 10
24.325000
 20
133.475000
 10
25.275000
 20
133.225000
  0
LINE
  5
203
100
AcDbEntity
  8
0
100
AcDbLine
 10
24.325000
 20
139.550000
 11
24.325000
 21
131.475000
  0
LINE
  5
206
100
AcDbEntity
  8
0
100
AcDbLine
 10
19.225000
 20
139.550000
 11
19.225000
 21
131.475000
  0
TEXT
  5
209
100
AcDbEntity
  8
0
100
AcDbText
 10
12.625000
 20
133.950000
 40
3.175000
  1
5.1
 41
1.000000
  7
STANDARD
100
AcDbText
  0
LINE
  5
20c
100
AcDbEntity
  8
0
100
AcDbLine
 10
19.225000
 20
149.900000
 11
21.625000
 21
149.900000
  0
LINE
  5
20f
100
AcDbEntity
  8
0
100
AcDbLine
 10
10.250000
 20
149.900000
 11
19.225000
 21
149.900000
  0
LINE
  5
212
100
AcDbEntity
  8
0
100
AcDbLine
 10
25.625000
 20
149.900000
 11
21.625000
 21
149.900000
  0
LWPOLYLINE
  5
215
100
AcDbEntity
  8
0
100
AcDbPolyline
 90
     3
 70
     0
 10
18.250000
 20
149.650000
 10
19.225000
 20
149.900000
 10
18.250000
 20
150.175000
  0
LWPOLYLINE
  5
21e
100
AcDbEntity
  8
0
100
AcDbPolyline
 90
     3
 70
     0
 10
22.575000
 20
150.175000
 10
21.625000
 20
149.900000
 10
22.575000
 20
149.650000
  0
LINE
  5
227
100
AcDbEntity
  8
0
100
AcDbLine
 10
21.625000
 20
156.000000
 11
21.625000
 21
147.900000
  0
LINE
  5
22a
100
AcDbEntity
  8
0
100
AcDbLine
 10
19.225000
 20
156.000000
 11
19.225000
 21
147.900000
  0
TEXT
  5
22d
100
AcDbEntity
  8
0
100
AcDbText
 10
10.250000
 20
150.400000
 40
3.175000
  1
2.4
 41
1.000000
  7
STANDARD
100
AcDbText
  0
LINE
  5
230
100
AcDbEntity
  8
0
100
AcDbLine
 10
23.350000
 20
145.125000
 11
25.300000
 21
142.625000
  0
LINE
  5
233
100
AcDbEntity
  8
0
100
AcDbLine
 10
35.925000
 20
129.100000
 11
25.300000
 21
142.625000
  0
LINE
  5
236
100
AcDbEntity
  8
0
100
AcDbLine
 10
20.875000
 20
148.250000
 11
23.350000
 21
145.125000
  0
LWPOLYLINE
  5
239
100
AcDbEntity
  8
0
100
AcDbPolyline
 90
     3
 70
     0
 10
26.100000
 20
142.050000
 10
25.300000
 20
142.625000
 10
25.675000
 20
141.725000
  0
LWPOLYLINE
  5
242
100
AcDbEntity
  8
0
100
AcDbPolyline
 90
     3
 70
     0
 10
22.525000
 20
145.725000
 10
23.350000
 20
145.125000
 10
22.950000
 20
146.050000
  0
TEXT
  5
24b
100
AcDbEntity
  8
0
100
AcDbText
 10
30.739703
 20
136.331332
 40
3.175000
  1
4-
 41
1.000000
 50
309.000000
  7
STANDARD
100
AcDbText
  0
TEXT
  5
24e
100
AcDbEntity
  8
0
100
AcDbText
 10
32.958057
 20
133.591893
 40
3.175000
  1
φ
 41
1.000000
 50
309.000000
  7
BIGFONT
100
AcDbText
  0
TEXT
  5
251
100
AcDbEntity
  8
0
100
AcDbText
 10
35.176412
 20
130.852453
 40
3.175000
  1
3.2
 41
1.000000
 50
309.000000
  7
STANDARD
100
AcDbText
  0
MTEXT
  5
254
100
AcDbEntity
  8
0
100
AcDbMText
 10
16.475000
 20
124.625000
 40
2.475000
 41
59.700000
 71
     1
 72
     5
  1
\T1.1;\fＭＳ ゴシック|b0|i0|c128|p18;[基板本体]　単位mm\P無印φ2.2穴:キーボード固定用(M2ねじ)\P[B]印φ2.2穴:電池ボックス固定用(M2ねじ)\P無印φ3.2穴:基板固定用M3ねじ・スペーサ用
  7
BIGFONT
  0
LINE
  5
257
100
AcDbEntity
  8
0
100
AcDbLine
 10
64.925000
 20
226.750000
 11
64.925000
 21
138.775000
  0
CIRCLE
  5
25a
100
AcDbEntity
  8
0
100
AcDbCircle
 10
64.925000
 20
219.775000
 40
1.600000
  0
CIRCLE
  5
25d
100
AcDbEntity
  8
0
100
AcDbCircle
 10
64.925000
 20
143.875000
 40
1.600000
  0
LINE
  5
260
100
AcDbEntity
  8
0
100
AcDbLine
 10
70.025000
 20
227.975000
 11
70.025000
 21
138.775000
  0
LINE
  5
263
100
AcDbEntity
  8
0
100
AcDbLine
 10
67.625000
 20
215.200000
 11
67.625000
 21
192.075000
  0
LINE
  5
266
100
AcDbEntity
  8
0
100
AcDbLine
 10
67.625000
 20
157.225000
 11
67.625000
 21
150.000000
  0
LINE
  5
269
100
AcDbEntity
  8
0
100
AcDbLine
 10
67.325000
 20
227.975000
 11
67.325000
 21
182.300000
  0
CIRCLE
  5
26c
100
AcDbEntity
  8
0
100
AcDbCircle
 10
67.325000
 20
225.275000
 40
1.100000
  0
CIRCLE
  5
26f
100
AcDbEntity
  8
0
100
AcDbCircle
 10
67.325000
 20
184.275000
 40
1.100000
  0
CIRCLE
  5
272
100
AcDbEntity
  8
0
100
AcDbCircle
 10
67.625000
 20
195.775000
 40
1.075000
  0
CIRCLE
  5
275
100
AcDbEntity
  8
0
100
AcDbCircle
 10
67.625000
 20
213.775000
 40
1.075000
  0
LINE
  5
278
100
AcDbEntity
  8
0
100
AcDbLine
 10
3.750000
 20
227.975000
 11
3.750000
 21
138.775000
  0
LWPOLYLINE
  5
27b
100
AcDbEntity
  8
0
100
AcDbPolyline
 90
     3
 70
     0
 10
4.000000
 20
227.025000
 10
3.750000
 20
227.975000
 10
3.475000
 20
227.025000
  0
LWPOLYLINE
  5
284
100
AcDbEntity
  8
0
100
AcDbPolyline
 90
     3
 70
     0
 10
3.475000
 20
139.750000
 10
3.750000
 20
138.775000
 10
4.000000
 20
139.750000
  0
LINE
  5
28d
100
AcDbEntity
  8
0
100
AcDbLine
 10
5.675000
 20
227.975000
 11
1.750000
 21
227.975000
  0
LINE
  5
290
100
AcDbEntity
  8
0
100
AcDbLine
 10
5.675000
 20
138.775000
 11
1.750000
 21
138.775000
  0
TEXT
  5
293
100
AcDbEntity
  8
0
100
AcDbText
 10
3.262500
 20
168.537500
 40
3.175000
  1
89.2
 41
1.000000
 50
90.000000
  7
STANDARD
100
AcDbText
  0
LINE
  5
296
100
AcDbEntity
  8
0
100
AcDbLine
 10
5.675000
 20
227.975000
 11
19.225000
 21
227.975000
  0
LINE
  5
299
100
AcDbEntity
  8
0
100
AcDbLine
 10
5.675000
 20
138.775000
 11
19.225000
 21
138.775000
  0
LINE
  5
29c
100
AcDbEntity
  8
0
100
AcDbLine
 10
144.325000
 20
159.350000
 11
97.275000
 21
159.350000
  0
LINE
  5
29f
100
AcDbEntity
  8
0
100
AcDbLine
 10
95.300000
 20
161.325000
 11
95.300000
 21
221.375000
  0
LINE
  5
2a2
100
AcDbEntity
  8
0
100
AcDbLine
 10
97.275000
 20
223.350000
 11
144.325000
 21
223.350000
  0
LINE
  5
2a5
100
AcDbEntity
  8
0
100
AcDbLine
 10
146.300000
 20
221.375000
 11
146.300000
 21
161.325000
  0
ARC
  5
2a8
100
AcDbEntity
  8
0
100
AcDbCircle
 10
144.325000
 20
161.325000
 40
2.000000
100
AcDbArc
 50
270.000000
 51
360.000000
  0
ARC
  5
2ab
100
AcDbEntity
  8
0
100
AcDbCircle
 10
97.275000
 20
161.325000
 40
2.000000
100
AcDbArc
 50
180.000000
 51
270.000000
  0
ARC
  5
2ae
100
AcDbEntity
  8
0
100
AcDbCircle
 10
97.275000
 20
221.375000
 40
2.000000
100
AcDbArc
 50
90.000000
 51
180.000000
  0
ARC
  5
2b1
100
AcDbEntity
  8
0
100
AcDbCircle
 10
144.325000
 20
221.375000
 40
2.000000
100
AcDbArc
 50
360.000000
 51
90.000000
  0
LWPOLYLINE
  5
2b4
100
AcDbEntity
  8
0
100
AcDbPolyline
 90
     4
 70
     1
 10
97.800000
 20
161.850000
 10
97.800000
 20
220.850000
 10
143.800000
 20
220.850000
 10
143.800000
 20
161.850000
  0
CIRCLE
  5
2bf
100
AcDbEntity
  8
0
100
AcDbCircle
 10
97.800000
 20
220.850000
 40
1.000000
  0
LINE
  5
2c2
100
AcDbEntity
  8
0
100
AcDbLine
 10
96.975000
 20
221.400000
 11
98.625000
 21
220.300000
  0
LINE
  5
2c5
100
AcDbEntity
  8
0
100
AcDbLine
 10
85.300000
 20
229.225000
 11
96.975000
 21
221.400000
  0
LINE
  5
2c8
100
AcDbEntity
  8
0
100
AcDbLine
 10
101.925000
 20
218.050000
 11
98.625000
 21
220.300000
  0
LWPOLYLINE
  5
2cb
100
AcDbEntity
  8
0
100
AcDbPolyline
 90
     3
 70
     0
 10
96.025000
 20
221.725000
 10
96.975000
 20
221.400000
 10
96.300000
 20
222.175000
  0
LWPOLYLINE
  5
2d4
100
AcDbEntity
  8
0
100
AcDbPolyline
 90
     3
 70
     0
 10
99.550000
 20
219.975000
 10
98.625000
 20
220.300000
 10
99.275000
 20
219.550000
  0
TEXT
  5
2dd
100
AcDbEntity
  8
0
100
AcDbText
 10
82.237648
 20
232.490854
 40
3.175000
  1
4-
 41
1.000000
 50
326.000000
  7
STANDARD
100
AcDbText
  0
TEXT
  5
2e0
100
AcDbEntity
  8
0
100
AcDbText
 10
85.160005
 20
230.519699
 40
3.175000
  1
φ
 41
1.000000
 50
326.000000
  7
BIGFONT
100
AcDbText
  0
TEXT
  5
2e3
100
AcDbEntity
  8
0
100
AcDbText
 10
88.082363
 20
228.548544
 40
3.175000
  1
2.1
 41
1.000000
 50
326.000000
  7
STANDARD
100
AcDbText
  0
LINE
  5
2e6
100
AcDbEntity
  8
0
100
AcDbLine
 10
94.225000
 20
161.850000
 11
94.225000
 21
220.850000
  0
LWPOLYLINE
  5
2e9
100
AcDbEntity
  8
0
100
AcDbPolyline
 90
     3
 70
     0
 10
93.950000
 20
162.825000
 10
94.225000
 20
161.850000
 10
94.475000
 20
162.825000
  0
LWPOLYLINE
  5
2f2
100
AcDbEntity
  8
0
100
AcDbPolyline
 90
     3
 70
     0
 10
94.475000
 20
219.900000
 10
94.225000
 20
220.850000
 10
93.950000
 20
219.900000
  0
LINE
  5
2fb
100
AcDbEntity
  8
0
100
AcDbLine
 10
96.150000
 20
161.850000
 11
92.225000
 21
161.850000
  0
LINE
  5
2fe
100
AcDbEntity
  8
0
100
AcDbLine
 10
96.150000
 20
220.850000
 11
92.225000
 21
220.850000
  0
TEXT
  5
301
100
AcDbEntity
  8
0
100
AcDbText
 10
93.737500
 20
200.212500
 40
3.175000
  1
59.0
 41
1.000000
 50
90.000000
  7
STANDARD
100
AcDbText
  0
LINE
  5
304
100
AcDbEntity
  8
0
100
AcDbLine
 10
89.600000
 20
159.350000
 11
89.600000
 21
223.350000
  0
LWPOLYLINE
  5
307
100
AcDbEntity
  8
0
100
AcDbPolyline
 90
     3
 70
     0
 10
89.325000
 20
160.325000
 10
89.600000
 20
159.350000
 10
89.850000
 20
160.325000
  0
LWPOLYLINE
  5
310
100
AcDbEntity
  8
0
100
AcDbPolyline
 90
     3
 70
     0
 10
89.850000
 20
222.400000
 10
89.600000
 20
223.350000
 10
89.325000
 20
222.400000
  0
LINE
  5
319
100
AcDbEntity
  8
0
100
AcDbLine
 10
91.525000
 20
159.350000
 11
87.600000
 21
159.350000
  0
LINE
  5
31c
100
AcDbEntity
  8
0
100
AcDbLine
 10
91.525000
 20
223.350000
 11
87.600000
 21
223.350000
  0
TEXT
  5
31f
100
AcDbEntity
  8
0
100
AcDbText
 10
89.112500
 20
209.737500
 40
3.175000
  1
64.0
 41
1.000000
 50
90.000000
  7
STANDARD
100
AcDbText
  0
LINE
  5
322
100
AcDbEntity
  8
0
100
AcDbLine
 10
95.300000
 20
226.075000
 11
146.300000
 21
226.075000
  0
LWPOLYLINE
  5
325
100
AcDbEntity
  8
0
100
AcDbPolyline
 90
     3
 70
     0
 10
96.250000
 20
226.350000
 10
95.300000
 20
226.075000
 10
96.250000
 20
225.825000
  0
LWPOLYLINE
  5
32e
100
AcDbEntity
  8
0
100
AcDbPolyline
 90
     3
 70
     0
 10
145.325000
 20
225.825000
 10
146.300000
 20
226.075000
 10
145.325000
 20
226.350000
  0
LINE
  5
337
100
AcDbEntity
  8
0
100
AcDbLine
 10
95.300000
 20
224.150000
 11
95.300000
 21
228.075000
  0
LINE
  5
33a
100
AcDbEntity
  8
0
100
AcDbLine
 10
146.300000
 20
224.150000
 11
146.300000
 21
228.075000
  0
TEXT
  5
33d
100
AcDbEntity
  8
0
100
AcDbText
 10
123.200000
 20
226.550000
 40
3.175000
  1
51.0
 41
1.000000
  7
STANDARD
100
AcDbText
  0
LINE
  5
340
100
AcDbEntity
  8
0
100
AcDbLine
 10
91.525000
 20
223.350000
 11
95.250000
 21
223.350000
  0
LINE
  5
343
100
AcDbEntity
  8
0
  6
DASHDOT
 62
     7
100
AcDbLine
 10
120.800000
 20
224.950000
 11
120.800000
 21
157.925000
  0
LINE
  5
346
100
AcDbEntity
  8
0
100
AcDbLine
 10
97.800000
 20
215.850000
 11
143.800000
 21
215.850000
  0
LWPOLYLINE
  5
349
100
AcDbEntity
  8
0
100
AcDbPolyline
 90
     3
 70
     0
 10
98.750000
 20
216.125000
 10
97.800000
 20
215.850000
 10
98.750000
 20
215.600000
  0
LWPOLYLINE
  5
352
100
AcDbEntity
  8
0
100
AcDbPolyline
 90
     3
 70
     0
 10
142.825000
 20
215.600000
 10
143.800000
 20
215.850000
 10
142.825000
 20
216.125000
  0
LINE
  5
35b
100
AcDbEntity
  8
0
100
AcDbLine
 10
97.800000
 20
213.925000
 11
97.800000
 21
217.850000
  0
LINE
  5
35e
100
AcDbEntity
  8
0
100
AcDbLine
 10
143.800000
 20
213.925000
 11
143.800000
 21
217.850000
  0
TEXT
  5
361
100
AcDbEntity
  8
0
100
AcDbText
 10
109.400000
 20
216.325000
 40
3.175000
  1
46.0
 41
1.000000
  7
STANDARD
100
AcDbText
  0
ARC
  5
364
100
AcDbEntity
  8
0
100
AcDbCircle
 10
144.325000
 20
221.375000
 40
2.000000
100
AcDbArc
 50
360.000000
 51
90.000000
  0
LINE
  5
367
100
AcDbEntity
  8
0
100
AcDbLine
 10
144.325000
 20
221.375000
 11
146.225000
 21
221.950000
  0
LINE
  5
36a
100
AcDbEntity
  8
0
100
AcDbLine
 10
155.125000
 20
224.600000
 11
146.225000
 21
221.950000
  0
LWPOLYLINE
  5
36d
100
AcDbEntity
  8
0
100
AcDbPolyline
 90
     3
 70
     0
 10
147.075000
 20
222.475000
 10
146.225000
 20
221.950000
 10
147.200000
 20
222.000000
  0
TEXT
  5
376
100
AcDbEntity
  8
0
100
AcDbText
 10
148.096443
 20
222.991828
 40
3.175000
  1
R2.0
 41
1.000000
 50
17.000000
  7
STANDARD
100
AcDbText
  0
MTEXT
  5
379
100
AcDbEntity
  8
0
100
AcDbMText
 10
107.350000
 20
155.125000
 40
2.475000
 41
37.900000
 71
     1
 72
     5
  1
\T1.1;\fＭＳ ゴシック|b0|i0|c128|p18;[キーボード]　単位mm\Pφ2.1穴：M2ねじで固定
  7
BIGFONT
  0
CIRCLE
  5
37c
100
AcDbEntity
  8
0
100
AcDbCircle
 10
120.750000
 20
128.075000
 40
14.800000
  0
MTEXT
  5
37f
100
AcDbEntity
  8
0
100
AcDbMText
 10
90.575000
 20
111.875000
 40
2.475000
 41
59.700000
 71
     1
 72
     5
  1
\T1.1;\fＭＳ ゴシック|b0|i0|c128|p18;[圧電ブザー]　単位mm\Pφ2.1穴：M2ねじで固定\P※圧電ブザー用の配線は30cm程であれば延長しても問題ありません。
  7
BIGFONT
  0
LINE
  5
382
100
AcDbEntity
  8
0
100
AcDbLine
 10
142.575000
 20
128.075000
 11
99.000000
 21
128.075000
  0
LINE
  5
385
100
AcDbEntity
  8
0
100
AcDbLine
 10
137.750000
 20
126.350000
 11
137.750000
 21
129.750000
  0
LINE
  5
388
100
AcDbEntity
  8
0
100
AcDbLine
 10
103.750000
 20
125.975000
 11
103.750000
 21
134.575000
  0
CIRCLE
  5
38b
100
AcDbEntity
  8
0
100
AcDbCircle
 10
103.750000
 20
128.075000
 40
1.000000
  0
CIRCLE
  5
38e
100
AcDbEntity
  8
0
100
AcDbCircle
 10
137.750000
 20
128.075000
 40
1.000000
  0
LINE
  5
391
100
AcDbEntity
  8
0
100
AcDbLine
 10
138.125000
 20
125.475000
 11
135.325000
 21
125.475000
  0
LINE
  5
394
100
AcDbEntity
  8
0
100
AcDbLine
 10
106.200000
 20
125.475000
 11
103.300000
 21
125.475000
  0
LINE
  5
397
100
AcDbEntity
  8
0
100
AcDbLine
 10
138.125000
 20
130.675000
 11
135.325000
 21
130.675000
  0
LINE
  5
39a
100
AcDbEntity
  8
0
100
AcDbLine
 10
106.200000
 20
130.675000
 11
103.500000
 21
130.675000
  0
LINE
  5
39d
100
AcDbEntity
  8
0
100
AcDbLine
 10
140.750000
 20
122.775000
 11
140.750000
 21
139.100000
  0
ARC
  5
3a0
100
AcDbEntity
  8
0
100
AcDbCircle
 10
138.150000
 20
128.075000
 40
2.600000
100
AcDbArc
 50
270.000000
 51
90.000000
  0
ARC
  5
3a3
100
AcDbEntity
  8
0
100
AcDbCircle
 10
138.150000
 20
128.075000
 40
2.600000
100
AcDbArc
 50
270.000000
 51
90.000000
  0
LINE
  5
3a6
100
AcDbEntity
  8
0
100
AcDbLine
 10
138.150000
 20
128.075000
 11
140.350000
 21
129.475000
  0
LINE
  5
3a9
100
AcDbEntity
  8
0
100
AcDbLine
 10
149.575000
 20
135.300000
 11
140.350000
 21
129.475000
  0
LWPOLYLINE
  5
3ac
100
AcDbEntity
  8
0
100
AcDbPolyline
 90
     3
 70
     0
 10
141.025000
 20
130.225000
 10
140.350000
 20
129.475000
 10
141.300000
 20
129.775000
  0
TEXT
  5
3b5
100
AcDbEntity
  8
0
100
AcDbText
 10
143.213274
 20
131.883514
 40
3.175000
  1
R2.6
 41
1.000000
 50
32.000000
  7
STANDARD
100
AcDbText
  0
LINE
  5
3b8
100
AcDbEntity
  8
0
100
AcDbLine
 10
103.750000
 20
132.525000
 11
137.750000
 21
132.525000
  0
LWPOLYLINE
  5
3bb
100
AcDbEntity
  8
0
100
AcDbPolyline
 90
     3
 70
     0
 10
104.700000
 20
132.800000
 10
103.750000
 20
132.525000
 10
104.700000
 20
132.275000
  0
LWPOLYLINE
  5
3c4
100
AcDbEntity
  8
0
100
AcDbPolyline
 90
     3
 70
     0
 10
136.775000
 20
132.275000
 10
137.750000
 20
132.525000
 10
136.775000
 20
132.800000
  0
LINE
  5
3cd
100
AcDbEntity
  8
0
100
AcDbLine
 10
103.750000
 20
130.625000
 11
103.750000
 21
134.525000
  0
LINE
  5
3d0
100
AcDbEntity
  8
0
100
AcDbLine
 10
137.750000
 20
130.625000
 11
137.750000
 21
134.525000
  0
TEXT
  5
3d3
100
AcDbEntity
  8
0
100
AcDbText
 10
123.100000
 20
133.025000
 40
3.175000
  1
34.0
 41
1.000000
  7
STANDARD
100
AcDbText
  0
LINE
  5
3d6
100
AcDbEntity
  8
0
  6
DASHDOT
 62
     7
100
AcDbLine
 10
120.750000
 20
112.075000
 11
120.750000
 21
144.500000
  0
LINE
  5
3d9
100
AcDbEntity
  8
0
100
AcDbLine
 10
100.750000
 20
122.775000
 11
100.750000
 21
139.100000
  0
LINE
  5
3dc
100
AcDbEntity
  8
0
100
AcDbLine
 10
100.750000
 20
139.675000
 11
140.750000
 21
139.675000
  0
LWPOLYLINE
  5
3df
100
AcDbEntity
  8
0
100
AcDbPolyline
 90
     3
 70
     0
 10
101.700000
 20
139.950000
 10
100.750000
 20
139.675000
 10
101.700000
 20
139.425000
  0
LWPOLYLINE
  5
3e8
100
AcDbEntity
  8
0
100
AcDbPolyline
 90
     3
 70
     0
 10
139.775000
 20
139.425000
 10
140.750000
 20
139.675000
 10
139.775000
 20
139.950000
  0
LINE
  5
3f1
100
AcDbEntity
  8
0
100
AcDbLine
 10
100.750000
 20
137.750000
 11
100.750000
 21
141.675000
  0
LINE
  5
3f4
100
AcDbEntity
  8
0
100
AcDbLine
 10
140.750000
 20
137.750000
 11
140.750000
 21
141.675000
  0
TEXT
  5
3f7
100
AcDbEntity
  8
0
100
AcDbText
 10
104.125000
 20
140.150000
 40
3.175000
  1
40.0
 41
1.000000
  7
STANDARD
100
AcDbText
  0
ARC
  5
3fa
100
AcDbEntity
  8
0
100
AcDbCircle
 10
103.350000
 20
128.075000
 40
2.600000
100
AcDbArc
 50
81.078125
 51
270.000000
  0
CIRCLE
  5
3fd
100
AcDbEntity
  8
0
100
AcDbCircle
 10
120.750000
 20
128.075000
 40
14.800000
  0
LINE
  5
400
100
AcDbEntity
  8
0
100
AcDbLine
 10
107.900000
 20
135.400000
 11
133.600000
 21
120.750000
  0
LINE
  5
403
100
AcDbEntity
  8
0
100
AcDbLine
 10
144.400000
 20
114.625000
 11
133.600000
 21
120.750000
  0
LINE
  5
406
100
AcDbEntity
  8
0
100
AcDbLine
 10
104.450000
 20
137.375000
 11
107.900000
 21
135.400000
  0
LWPOLYLINE
  5
409
100
AcDbEntity
  8
0
100
AcDbPolyline
 90
     3
 70
     0
 10
134.550000
 20
120.500000
 10
133.600000
 20
120.750000
 10
134.300000
 20
120.050000
  0
LWPOLYLINE
  5
412
100
AcDbEntity
  8
0
100
AcDbPolyline
 90
     3
 70
     0
 10
106.925000
 20
135.675000
 10
107.900000
 20
135.400000
 10
107.175000
 20
136.125000
  0
TEXT
  5
41b
100
AcDbEntity
  8
0
100
AcDbText
 10
135.069956
 20
120.415494
 40
3.175000
  1
φ
 41
1.000000
 50
331.000000
  7
BIGFONT
100
AcDbText
  0
TEXT
  5
41e
100
AcDbEntity
  8
0
100
AcDbText
 10
138.152991
 20
118.706540
 40
3.175000
  1
29.6
 41
1.000000
 50
331.000000
  7
STANDARD
100
AcDbText
  0
LINE
  5
421
100
AcDbEntity
  8
0
100
AcDbLine
 10
102.800000
 20
128.300000
 11
104.700000
 21
127.850000
  0
LINE
  5
424
100
AcDbEntity
  8
0
100
AcDbLine
 10
88.950000
 20
131.625000
 11
102.800000
 21
128.300000
  0
LINE
  5
427
100
AcDbEntity
  8
0
100
AcDbLine
 10
108.575000
 20
126.900000
 11
104.700000
 21
127.850000
  0
LWPOLYLINE
  5
42a
100
AcDbEntity
  8
0
100
AcDbPolyline
 90
     3
 70
     0
 10
101.800000
 20
128.275000
 10
102.800000
 20
128.300000
 10
101.900000
 20
128.800000
  0
LWPOLYLINE
  5
433
100
AcDbEntity
  8
0
100
AcDbPolyline
 90
     3
 70
     0
 10
105.675000
 20
127.875000
 10
104.700000
 20
127.850000
 10
105.575000
 20
127.375000
  0
TEXT
  5
43c
100
AcDbEntity
  8
0
100
AcDbText
 10
87.020166
 20
133.185369
 40
3.175000
  1
2-
 41
1.000000
 50
346.000000
  7
STANDARD
100
AcDbText
  0
TEXT
  5
43f
100
AcDbEntity
  8
0
100
AcDbText
 10
90.440458
 20
132.332594
 40
3.175000
  1
φ
 41
1.000000
 50
346.000000
  7
BIGFONT
100
AcDbText
  0
TEXT
  5
442
100
AcDbEntity
  8
0
100
AcDbText
 10
93.860751
 20
131.479819
 40
3.175000
  1
2.1
 41
1.000000
 50
346.000000
  7
STANDARD
100
AcDbText
  0
CIRCLE
  5
445
100
AcDbEntity
  8
0
100
AcDbCircle
 10
97.800000
 20
161.850000
 40
1.000000
  0
CIRCLE
  5
448
100
AcDbEntity
  8
0
100
AcDbCircle
 10
143.800000
 20
161.850000
 40
1.000000
  0
CIRCLE
  5
44b
100
AcDbEntity
  8
0
100
AcDbCircle
 10
143.800000
 20
220.850000
 40
1.000000
  0
CIRCLE
  5
44e
100
AcDbEntity
  8
0
100
AcDbCircle
 10
120.750000
 20
128.075000
 40
2.000000
  0
LINE
  5
451
100
AcDbEntity
  8
0
100
AcDbLine
 10
46.825000
 20
143.875000
 11
46.825000
 21
138.775000
  0
LWPOLYLINE
  5
454
100
AcDbEntity
  8
0
100
AcDbPolyline
 90
     3
 70
     0
 10
47.075000
 20
142.925000
 10
46.825000
 20
143.875000
 10
46.550000
 20
142.925000
  0
LWPOLYLINE
  5
45d
100
AcDbEntity
  8
0
100
AcDbPolyline
 90
     3
 70
     0
 10
46.550000
 20
139.750000
 10
46.825000
 20
138.775000
 10
47.075000
 20
139.750000
  0
LINE
  5
466
100
AcDbEntity
  8
0
100
AcDbLine
 10
48.750000
 20
143.875000
 11
44.825000
 21
143.875000
  0
LINE
  5
469
100
AcDbEntity
  8
0
100
AcDbLine
 10
48.750000
 20
138.775000
 11
44.825000
 21
138.775000
  0
TEXT
  5
46c
100
AcDbEntity
  8
0
100
AcDbText
 10
46.350000
 20
133.250000
 40
3.175000
  1
5.1
 41
1.000000
 50
90.000000
  7
STANDARD
100
AcDbText
  0
LINE
  5
46f
100
AcDbEntity
  8
0
100
AcDbLine
 10
52.550000
 20
154.775000
 11
52.550000
 21
138.775000
  0
LWPOLYLINE
  5
472
100
AcDbEntity
  8
0
100
AcDbPolyline
 90
     3
 70
     0
 10
52.800000
 20
153.825000
 10
52.550000
 20
154.775000
 10
52.275000
 20
153.825000
  0
LWPOLYLINE
  5
47b
100
AcDbEntity
  8
0
100
AcDbPolyline
 90
     3
 70
     0
 10
52.275000
 20
139.750000
 10
52.550000
 20
138.775000
 10
52.800000
 20
139.750000
  0
LINE
  5
484
100
AcDbEntity
  8
0
100
AcDbLine
 10
54.475000
 20
154.775000
 11
50.550000
 21
154.775000
  0
LINE
  5
487
100
AcDbEntity
  8
0
100
AcDbLine
 10
54.475000
 20
138.775000
 11
50.550000
 21
138.775000
  0
TEXT
  5
48a
100
AcDbEntity
  8
0
100
AcDbText
 10
52.062500
 20
145.787500
 40
3.175000
  1
16.0
 41
1.000000
 50
90.000000
  7
STANDARD
100
AcDbText
  0
LINE
  5
48d
100
AcDbEntity
  8
0
100
AcDbLine
 10
56.075000
 20
154.775000
 11
56.075000
 21
184.275000
  0
LWPOLYLINE
  5
490
100
AcDbEntity
  8
0
100
AcDbPolyline
 90
     3
 70
     0
 10
55.800000
 20
155.750000
 10
56.075000
 20
154.775000
 10
56.325000
 20
155.750000
  0
LWPOLYLINE
  5
499
100
AcDbEntity
  8
0
100
AcDbPolyline
 90
     3
 70
     0
 10
56.325000
 20
183.325000
 10
56.075000
 20
184.275000
 10
55.800000
 20
183.325000
  0
LINE
  5
4a2
100
AcDbEntity
  8
0
100
AcDbLine
 10
50.000000
 20
154.775000
 11
58.075000
 21
154.775000
  0
LINE
  5
4a5
100
AcDbEntity
  8
0
100
AcDbLine
 10
50.000000
 20
184.275000
 11
58.075000
 21
184.275000
  0
TEXT
  5
4a8
100
AcDbEntity
  8
0
100
AcDbText
 10
55.587500
 20
165.512500
 40
3.175000
  1
29.5
 41
1.000000
 50
90.000000
  7
STANDARD
100
AcDbText
  0
LINE
  5
4ab
100
AcDbEntity
  8
0
100
AcDbLine
 10
52.525000
 20
184.275000
 11
52.525000
 21
195.775000
  0
LWPOLYLINE
  5
4ae
100
AcDbEntity
  8
0
100
AcDbPolyline
 90
     3
 70
     0
 10
52.250000
 20
185.250000
 10
52.525000
 20
184.275000
 10
52.775000
 20
185.250000
  0
LWPOLYLINE
  5
4b7
100
AcDbEntity
  8
0
100
AcDbPolyline
 90
     3
 70
     0
 10
52.775000
 20
194.825000
 10
52.525000
 20
195.775000
 10
52.250000
 20
194.825000
  0
LINE
  5
4c0
100
AcDbEntity
  8
0
100
AcDbLine
 10
54.450000
 20
184.275000
 11
50.525000
 21
184.275000
  0
LINE
  5
4c3
100
AcDbEntity
  8
0
100
AcDbLine
 10
54.450000
 20
195.775000
 11
50.525000
 21
195.775000
  0
TEXT
  5
4c6
100
AcDbEntity
  8
0
100
AcDbText
 10
52.037500
 20
186.937500
 40
3.175000
  1
11.5
 41
1.000000
 50
90.000000
  7
STANDARD
100
AcDbText
  0
LINE
  5
4c9
100
AcDbEntity
  8
0
100
AcDbLine
 10
75.550000
 20
219.775000
 11
75.550000
 21
227.975000
  0
LWPOLYLINE
  5
4cc
100
AcDbEntity
  8
0
100
AcDbPolyline
 90
     3
 70
     0
 10
75.275000
 20
220.750000
 10
75.550000
 20
219.775000
 10
75.800000
 20
220.750000
  0
LWPOLYLINE
  5
4d5
100
AcDbEntity
  8
0
100
AcDbPolyline
 90
     3
 70
     0
 10
75.800000
 20
227.025000
 10
75.550000
 20
227.975000
 10
75.275000
 20
227.025000
  0
LINE
  5
4de
100
AcDbEntity
  8
0
100
AcDbLine
 10
69.425000
 20
219.775000
 11
77.550000
 21
219.775000
  0
LINE
  5
4e1
100
AcDbEntity
  8
0
100
AcDbLine
 10
69.425000
 20
227.975000
 11
77.550000
 21
227.975000
  0
TEXT
  5
4e4
100
AcDbEntity
  8
0
100
AcDbText
 10
75.075000
 20
221.475000
 40
3.175000
  1
8.2
 41
1.000000
 50
90.000000
  7
STANDARD
100
AcDbText
  0
CIRCLE
  5
4e7
100
AcDbEntity
  8
0
100
AcDbCircle
 10
67.625000
 20
154.775000
 40
1.125000
  0
LINE
  5
4ea
100
AcDbEntity
  8
0
100
AcDbLine
 10
67.625000
 20
209.000000
 11
70.025000
 21
209.000000
  0
LINE
  5
4ed
100
AcDbEntity
  8
0
100
AcDbLine
 10
63.625000
 20
209.000000
 11
67.625000
 21
209.000000
  0
LINE
  5
4f0
100
AcDbEntity
  8
0
100
AcDbLine
 10
76.575000
 20
209.000000
 11
70.025000
 21
209.000000
  0
LWPOLYLINE
  5
4f3
100
AcDbEntity
  8
0
100
AcDbPolyline
 90
     3
 70
     0
 10
66.650000
 20
208.750000
 10
67.625000
 20
209.000000
 10
66.650000
 20
209.275000
  0
LWPOLYLINE
  5
4fc
100
AcDbEntity
  8
0
100
AcDbPolyline
 90
     3
 70
     0
 10
70.975000
 20
209.275000
 10
70.025000
 20
209.000000
 10
70.975000
 20
208.750000
  0
LINE
  5
505
100
AcDbEntity
  8
0
100
AcDbLine
 10
67.625000
 20
207.100000
 11
67.625000
 21
211.000000
  0
LINE
  5
508
100
AcDbEntity
  8
0
100
AcDbLine
 10
70.025000
 20
207.100000
 11
70.025000
 21
211.000000
  0
TEXT
  5
50b
100
AcDbEntity
  8
0
100
AcDbText
 10
71.275000
 20
209.500000
 40
3.175000
  1
2.4
 41
1.000000
  7
STANDARD
100
AcDbText
  0
LINE
  5
50e
100
AcDbEntity
  8
0
100
AcDbLine
 10
67.325000
 20
186.625000
 11
70.025000
 21
186.625000
  0
LINE
  5
511
100
AcDbEntity
  8
0
100
AcDbLine
 10
63.325000
 20
186.625000
 11
67.325000
 21
186.625000
  0
LINE
  5
514
100
AcDbEntity
  8
0
100
AcDbLine
 10
76.900000
 20
186.625000
 11
70.025000
 21
186.625000
  0
LWPOLYLINE
  5
517
100
AcDbEntity
  8
0
100
AcDbPolyline
 90
     3
 70
     0
 10
66.350000
 20
186.375000
 10
67.325000
 20
186.625000
 10
66.350000
 20
186.900000
  0
LWPOLYLINE
  5
520
100
AcDbEntity
  8
0
100
AcDbPolyline
 90
     3
 70
     0
 10
70.975000
 20
186.900000
 10
70.025000
 20
186.625000
 10
70.975000
 20
186.375000
  0
LINE
  5
529
100
AcDbEntity
  8
0
100
AcDbLine
 10
67.325000
 20
184.725000
 11
67.325000
 21
188.625000
  0
LINE
  5
52c
100
AcDbEntity
  8
0
100
AcDbLine
 10
70.025000
 20
184.725000
 11
70.025000
 21
188.625000
  0
TEXT
  5
52f
100
AcDbEntity
  8
0
100
AcDbText
 10
71.600000
 20
187.125000
 40
3.175000
  1
2.7
 41
1.000000
  7
STANDARD
100
AcDbText
  0
LINE
  5
532
100
AcDbEntity
  8
0
100
AcDbLine
 10
67.625000
 20
149.450000
 11
70.025000
 21
149.450000
  0
LINE
  5
535
100
AcDbEntity
  8
0
100
AcDbLine
 10
63.625000
 20
149.450000
 11
67.625000
 21
149.450000
  0
LINE
  5
538
100
AcDbEntity
  8
0
100
AcDbLine
 10
76.625000
 20
149.450000
 11
70.025000
 21
149.450000
  0
LWPOLYLINE
  5
53b
100
AcDbEntity
  8
0
100
AcDbPolyline
 90
     3
 70
     0
 10
66.650000
 20
149.200000
 10
67.625000
 20
149.450000
 10
66.650000
 20
149.725000
  0
LWPOLYLINE
  5
544
100
AcDbEntity
  8
0
100
AcDbPolyline
 90
     3
 70
     0
 10
70.975000
 20
149.725000
 10
70.025000
 20
149.450000
 10
70.975000
 20
149.200000
  0
LINE
  5
54d
100
AcDbEntity
  8
0
100
AcDbLine
 10
67.625000
 20
147.550000
 11
67.625000
 21
151.450000
  0
LINE
  5
550
100
AcDbEntity
  8
0
100
AcDbLine
 10
70.025000
 20
147.550000
 11
70.025000
 21
151.450000
  0
TEXT
  5
553
100
AcDbEntity
  8
0
100
AcDbText
 10
71.325000
 20
149.950000
 40
3.175000
  1
2.4
 41
1.000000
  7
STANDARD
100
AcDbText
  0
LINE
  5
556
100
AcDbEntity
  8
0
100
AcDbLine
 10
64.925000
 20
136.325000
 11
70.025000
 21
136.325000
  0
LINE
  5
559
100
AcDbEntity
  8
0
100
AcDbLine
 10
60.925000
 20
136.325000
 11
64.925000
 21
136.325000
  0
LINE
  5
55c
100
AcDbEntity
  8
0
100
AcDbLine
 10
76.825000
 20
136.325000
 11
70.025000
 21
136.325000
  0
LWPOLYLINE
  5
55f
100
AcDbEntity
  8
0
100
AcDbPolyline
 90
     3
 70
     0
 10
63.950000
 20
136.075000
 10
64.925000
 20
136.325000
 10
63.950000
 20
136.600000
  0
LWPOLYLINE
  5
568
100
AcDbEntity
  8
0
100
AcDbPolyline
 90
     3
 70
     0
 10
70.975000
 20
136.600000
 10
70.025000
 20
136.325000
 10
70.975000
 20
136.075000
  0
LINE
  5
571
100
AcDbEntity
  8
0
100
AcDbLine
 10
64.925000
 20
134.400000
 11
64.925000
 21
138.325000
  0
LINE
  5
574
100
AcDbEntity
  8
0
100
AcDbLine
 10
70.025000
 20
134.400000
 11
70.025000
 21
138.325000
  0
TEXT
  5
577
100
AcDbEntity
  8
0
100
AcDbText
 10
71.525000
 20
136.800000
 40
3.175000
  1
5.1
 41
1.000000
  7
STANDARD
100
AcDbText
  0
LINE
  5
57a
100
AcDbEntity
  8
0
100
AcDbLine
 10
54.200000
 20
213.775000
 11
54.200000
 21
195.775000
  0
LWPOLYLINE
  5
57d
100
AcDbEntity
  8
0
100
AcDbPolyline
 90
     3
 70
     0
 10
54.450000
 20
212.825000
 10
54.200000
 20
213.775000
 10
53.925000
 20
212.825000
  0
LWPOLYLINE
  5
586
100
AcDbEntity
  8
0
100
AcDbPolyline
 90
     3
 70
     0
 10
53.925000
 20
196.750000
 10
54.200000
 20
195.775000
 10
54.450000
 20
196.750000
  0
LINE
  5
58f
100
AcDbEntity
  8
0
100
AcDbLine
 10
48.125000
 20
213.775000
 11
56.200000
 21
213.775000
  0
LINE
  5
592
100
AcDbEntity
  8
0
100
AcDbLine
 10
48.125000
 20
195.775000
 11
56.200000
 21
195.775000
  0
TEXT
  5
595
100
AcDbEntity
  8
0
100
AcDbText
 10
53.712500
 20
201.887500
 40
3.175000
  1
18.0
 41
1.000000
 50
90.000000
  7
STANDARD
100
AcDbText
  0
LINE
  5
598
100
AcDbEntity
  8
0
100
AcDbLine
 10
51.250000
 20
213.775000
 11
51.250000
 21
225.275000
  0
LWPOLYLINE
  5
59b
100
AcDbEntity
  8
0
100
AcDbPolyline
 90
     3
 70
     0
 10
50.975000
 20
214.750000
 10
51.250000
 20
213.775000
 10
51.500000
 20
214.750000
  0
LWPOLYLINE
  5
5a4
100
AcDbEntity
  8
0
100
AcDbPolyline
 90
     3
 70
     0
 10
51.500000
 20
224.325000
 10
51.250000
 20
225.275000
 10
50.975000
 20
224.325000
  0
LINE
  5
5ad
100
AcDbEntity
  8
0
100
AcDbLine
 10
53.175000
 20
213.775000
 11
49.250000
 21
213.775000
  0
LINE
  5
5b0
100
AcDbEntity
  8
0
100
AcDbLine
 10
53.175000
 20
225.275000
 11
49.250000
 21
225.275000
  0
TEXT
  5
5b3
100
AcDbEntity
  8
0
100
AcDbText
 10
50.762500
 20
215.812500
 40
3.175000
  1
11.5
 41
1.000000
 50
90.000000
  7
STANDARD
100
AcDbText
  0
MTEXT
  5
5b6
100
AcDbEntity
  8
0
100
AcDbMText
 10
67.750000
 20
224.225000
 40
2.475000
 41
2.475000
 71
     1
 72
     5
  1
\T1.1;\fＭＳ ゴシック|b0|i0|c128|p18;B
  7
BIGFONT
  0
MTEXT
  5
5b9
100
AcDbEntity
  8
0
100
AcDbMText
 10
68.075000
 20
183.050000
 40
2.475000
 41
2.475000
 71
     1
 72
     5
  1
\T1.1;\fＭＳ ゴシック|b0|i0|c128|p18;B
  7
BIGFONT
  0
ENDSEC
  0
SECTION
  2
OBJECTS
  0
DICTIONARY
  5
5c4
100
AcDbDictionary
  3
ACAD_GROUP
350
5c5
  3
ACAD_MLINESTYLE
350
5c6
  3
CONTENTDICTIONARY
350
5c7
  0
DICTIONARY
  5
5c5
102
{ACAD_REACTORS
330
5c4
102
}
100
AcDbDictionary
  0
DICTIONARY
  5
5c6
102
{ACAD_REACTORS
330
5c4
102
}
100
AcDbDictionary
  3
STANDARD
350
5c8
  0
DICTIONARY
  5
5c7
102
{ACAD_REACTORS
330
5c4
102
}
100
AcDbDictionary
  0
MLINESTYLE
  5
5c8
102
{ACAD_REACTORS
330
5c6
102
}
100
AcDbMlineStyle
  2
STANDARD
 70
     0
  3
 
 62
   256
 51
90.000000
 52
90.000000
 71
     2
 49
0.500000
 62
   256
  6
BYLAYER
 49
-0.500000
 62
   256
  6
BYLAYER
  0
ENDSEC
  0
EOF
